  0
SECTION
  2
HEADER
  9
$ACADVER
  1
AC1009
  9
$INSUNITS
  70
13
  9
$EXTMIN
  10
0
  20
0
  9
$EXTMAX
  10
350
  20
275
  0
ENDSEC
  0
SECTION
  2
TABLES
  0
TABLE
  2
LTYPE
  70
1
  0
LTYPE
  2
CONTINUOUS
  70
64
  3
Solid line
  72
65
  73
0
  40
0
  0
ENDTAB
  0
TABLE
  2
LAYER
  70
2
  0
LAYER
  2
1_0
  70
0
  62
1
  6
CONTINUOUS
  0
LAYER
  2
2_0
  70
0
  62
1
  6
CONTINUOUS
  0
ENDTAB
  0
ENDSEC
  0
SECTION
  2
BLOCKS
  0
ENDSEC
  0
SECTION
  2
ENTITIES
  0
POLYLINE
  8
1_0
  70
1
  66
1
  0
VERTEX
  8
1_0
  10
163.5
  20
224.5
  0
VERTEX
  8
1_0
  10
168.5
  20
224.5
  0
VERTEX
  8
1_0
  10
168.5
  20
229.5
  0
VERTEX
  8
1_0
  10
163.5
  20
229.5
  0
VERTEX
  8
1_0
  10
163.5
  20
239.5
  0
VERTEX
  8
1_0
  10
158.5
  20
239.5
  0
VERTEX
  8
1_0
  10
158.5
  20
229.5
  0
VERTEX
  8
1_0
  10
153.5
  20
229.5
  0
VERTEX
  8
1_0
  10
153.5
  20
239.5
  0
VERTEX
  8
1_0
  10
148.5
  20
239.5
  0
VERTEX
  8
1_0
  10
148.5
  20
224.5
  0
VERTEX
  8
1_0
  10
158.5
  20
224.5
  0
VERTEX
  8
1_0
  10
158.5
  20
214.5
  0
VERTEX
  8
1_0
  10
163.5
  20
214.5
  0
SEQEND
  0
POLYLINE
  8
1_0
  70
1
  66
1
  0
VERTEX
  8
1_0
  10
179.75
  20
219.5
  0
VERTEX
  8
1_0
  10
178.5
  20
220.75
  0
VERTEX
  8
1_0
  10
178.5
  20
233.25
  0
VERTEX
  8
1_0
  10
179.75
  20
234.5
  0
VERTEX
  8
1_0
  10
182.25
  20
234.5
  0
VERTEX
  8
1_0
  10
182.25
  20
239.5
  0
VERTEX
  8
1_0
  10
176
  20
239.5
  0
VERTEX
  8
1_0
  10
173.5
  20
237
  0
VERTEX
  8
1_0
  10
173.5
  20
217
  0
VERTEX
  8
1_0
  10
176
  20
214.5
  0
VERTEX
  8
1_0
  10
182.25
  20
214.5
  0
VERTEX
  8
1_0
  10
182.25
  20
219.5
  0
SEQEND
  0
POLYLINE
  8
1_0
  70
1
  66
1
  0
VERTEX
  8
1_0
  10
187.25
  20
234.5
  0
VERTEX
  8
1_0
  10
188.5
  20
233.25
  0
VERTEX
  8
1_0
  10
188.5
  20
220.75
  0
VERTEX
  8
1_0
  10
187.25
  20
219.5
  0
VERTEX
  8
1_0
  10
184.75
  20
219.5
  0
VERTEX
  8
1_0
  10
184.75
  20
214.5
  0
VERTEX
  8
1_0
  10
191
  20
214.5
  0
VERTEX
  8
1_0
  10
193.5
  20
217
  0
VERTEX
  8
1_0
  10
193.5
  20
237
  0
VERTEX
  8
1_0
  10
191
  20
239.5
  0
VERTEX
  8
1_0
  10
184.75
  20
239.5
  0
VERTEX
  8
1_0
  10
184.75
  20
234.5
  0
SEQEND
  0
POLYLINE
  8
1_0
  70
1
  66
1
  0
VERTEX
  8
1_0
  10
51
  20
32.5
  0
VERTEX
  8
1_0
  10
50
  20
33.5
  0
VERTEX
  8
1_0
  10
50
  20
38
  0
VERTEX
  8
1_0
  10
51
  20
39
  0
VERTEX
  8
1_0
  10
55
  20
39
  0
VERTEX
  8
1_0
  10
55
  20
43
  0
VERTEX
  8
1_0
  10
51
  20
43
  0
VERTEX
  8
1_0
  10
50
  20
44
  0
VERTEX
  8
1_0
  10
50
  20
48.5
  0
VERTEX
  8
1_0
  10
51
  20
49.5
  0
VERTEX
  8
1_0
  10
61
  20
49.5
  0
VERTEX
  8
1_0
  10
63
  20
47.5
  0
VERTEX
  8
1_0
  10
66
  20
47.5
  0
VERTEX
  8
1_0
  10
66
  20
50.5
  0
VERTEX
  8
1_0
  10
63
  20
53.5
  0
VERTEX
  8
1_0
  10
49
  20
53.5
  0
VERTEX
  8
1_0
  10
46
  20
50.5
  0
VERTEX
  8
1_0
  10
46
  20
31.5
  0
VERTEX
  8
1_0
  10
49
  20
28.5
  0
VERTEX
  8
1_0
  10
55
  20
28.5
  0
VERTEX
  8
1_0
  10
55
  20
32.5
  0
SEQEND
  0
POLYLINE
  8
1_0
  70
1
  66
1
  0
VERTEX
  8
1_0
  10
61
  20
39
  0
VERTEX
  8
1_0
  10
62
  20
38
  0
VERTEX
  8
1_0
  10
62
  20
33.5
  0
VERTEX
  8
1_0
  10
61
  20
32.5
  0
VERTEX
  8
1_0
  10
57
  20
32.5
  0
VERTEX
  8
1_0
  10
57
  20
28.5
  0
VERTEX
  8
1_0
  10
63
  20
28.5
  0
VERTEX
  8
1_0
  10
66
  20
31.5
  0
VERTEX
  8
1_0
  10
66
  20
39.75
  0
VERTEX
  8
1_0
  10
62.75
  20
43
  0
VERTEX
  8
1_0
  10
57
  20
43
  0
VERTEX
  8
1_0
  10
57
  20
39
  0
SEQEND
  0
POLYLINE
  8
1_0
  70
1
  66
1
  0
VERTEX
  8
1_0
  10
87
  20
53.5
  0
VERTEX
  8
1_0
  10
87
  20
50
  0
VERTEX
  8
1_0
  10
81
  20
44
  0
VERTEX
  8
1_0
  10
75
  20
50
  0
VERTEX
  8
1_0
  10
75
  20
53.5
  0
VERTEX
  8
1_0
  10
71
  20
53.5
  0
VERTEX
  8
1_0
  10
71
  20
48.25
  0
VERTEX
  8
1_0
  10
78.25
  20
41
  0
VERTEX
  8
1_0
  10
71
  20
33.75
  0
VERTEX
  8
1_0
  10
71
  20
28.5
  0
VERTEX
  8
1_0
  10
75
  20
28.5
  0
VERTEX
  8
1_0
  10
75
  20
32
  0
VERTEX
  8
1_0
  10
81
  20
38
  0
VERTEX
  8
1_0
  10
87
  20
32
  0
VERTEX
  8
1_0
  10
87
  20
28.5
  0
VERTEX
  8
1_0
  10
91
  20
28.5
  0
VERTEX
  8
1_0
  10
91
  20
33.75
  0
VERTEX
  8
1_0
  10
83.75
  20
41
  0
VERTEX
  8
1_0
  10
91
  20
48.25
  0
VERTEX
  8
1_0
  10
91
  20
53.5
  0
SEQEND
  0
POLYLINE
  8
1_0
  70
1
  66
1
  0
VERTEX
  8
1_0
  10
100
  20
48.5
  0
VERTEX
  8
1_0
  10
101
  20
49.5
  0
VERTEX
  8
1_0
  10
111
  20
49.5
  0
VERTEX
  8
1_0
  10
112
  20
48.5
  0
VERTEX
  8
1_0
  10
112
  20
46.5
  0
VERTEX
  8
1_0
  10
96
  20
34.5
  0
VERTEX
  8
1_0
  10
96
  20
28.5
  0
VERTEX
  8
1_0
  10
116
  20
28.5
  0
VERTEX
  8
1_0
  10
116
  20
32.5
  0
VERTEX
  8
1_0
  10
100
  20
32.5
  0
VERTEX
  8
1_0
  10
106.67
  20
37.5
  0
VERTEX
  8
1_0
  10
116
  20
44.5
  0
VERTEX
  8
1_0
  10
116
  20
50.5
  0
VERTEX
  8
1_0
  10
113
  20
53.5
  0
VERTEX
  8
1_0
  10
99
  20
53.5
  0
VERTEX
  8
1_0
  10
96
  20
50.5
  0
VERTEX
  8
1_0
  10
96
  20
46
  0
VERTEX
  8
1_0
  10
100
  20
46
  0
SEQEND
  0
POLYLINE
  8
1_0
  70
1
  66
1
  0
VERTEX
  8
1_0
  10
136.25
  20
40.5
  0
VERTEX
  8
1_0
  10
137
  20
39.75
  0
VERTEX
  8
1_0
  10
137
  20
33.5
  0
VERTEX
  8
1_0
  10
136
  20
32.5
  0
VERTEX
  8
1_0
  10
126
  20
32.5
  0
VERTEX
  8
1_0
  10
125
  20
33.5
  0
VERTEX
  8
1_0
  10
125
  20
36
  0
VERTEX
  8
1_0
  10
121
  20
36
  0
VERTEX
  8
1_0
  10
121
  20
31.5
  0
VERTEX
  8
1_0
  10
124
  20
28.5
  0
VERTEX
  8
1_0
  10
138
  20
28.5
  0
VERTEX
  8
1_0
  10
141
  20
31.5
  0
VERTEX
  8
1_0
  10
141
  20
41.75
  0
VERTEX
  8
1_0
  10
138.25
  20
44.5
  0
VERTEX
  8
1_0
  10
125
  20
44.5
  0
VERTEX
  8
1_0
  10
125
  20
49.5
  0
VERTEX
  8
1_0
  10
141
  20
49.5
  0
VERTEX
  8
1_0
  10
141
  20
53.5
  0
VERTEX
  8
1_0
  10
121
  20
53.5
  0
VERTEX
  8
1_0
  10
121
  20
40.5
  0
SEQEND
  0
POLYLINE
  8
1_0
  70
1
  66
1
  0
VERTEX
  8
1_0
  10
0
  20
0
  0
VERTEX
  8
1_0
  10
25
  20
0
  0
VERTEX
  8
1_0
  10
25
  20
250
  0
VERTEX
  8
1_0
  10
325
  20
250
  0
VERTEX
  8
1_0
  10
325
  20
25
  0
VERTEX
  8
1_0
  10
25
  20
25
  0
VERTEX
  8
1_0
  10
25
  20
0
  0
VERTEX
  8
1_0
  10
350
  20
0
  0
VERTEX
  8
1_0
  10
350
  20
275
  0
VERTEX
  8
1_0
  10
0
  20
275
  0
SEQEND
  0
POLYLINE
  8
2_0
  70
1
  66
1
  0
VERTEX
  8
2_0
  10
197
  20
199.5
  0
VERTEX
  8
2_0
  10
195
  20
201.5
  0
VERTEX
  8
2_0
  10
155
  20
201.5
  0
VERTEX
  8
2_0
  10
153
  20
199.5
  0
VERTEX
  8
2_0
  10
153
  20
152
  0
VERTEX
  8
2_0
  10
197
  20
152
  0
SEQEND
  0
POLYLINE
  8
2_0
  70
1
  66
1
  0
VERTEX
  8
2_0
  10
51
  20
58.5
  0
VERTEX
  8
2_0
  10
53
  20
56.5
  0
VERTEX
  8
2_0
  10
115
  20
56.5
  0
VERTEX
  8
2_0
  10
117
  20
58.5
  0
VERTEX
  8
2_0
  10
117
  20
89.5
  0
VERTEX
  8
2_0
  10
133
  20
105.5
  0
VERTEX
  8
2_0
  10
133
  20
132.5
  0
VERTEX
  8
2_0
  10
122
  20
132.5
  0
VERTEX
  8
2_0
  10
117
  20
137.5
  0
VERTEX
  8
2_0
  10
117
  20
199.5
  0
VERTEX
  8
2_0
  10
115
  20
201.5
  0
VERTEX
  8
2_0
  10
53
  20
201.5
  0
VERTEX
  8
2_0
  10
51
  20
199.5
  0
SEQEND
  0
POLYLINE
  8
2_0
  70
1
  66
1
  0
VERTEX
  8
2_0
  10
196
  20
56.5
  0
VERTEX
  8
2_0
  10
198
  20
58.5
  0
VERTEX
  8
2_0
  10
198
  20
91.5
  0
VERTEX
  8
2_0
  10
152
  20
91.5
  0
VERTEX
  8
2_0
  10
152
  20
60.5
  0
VERTEX
  8
2_0
  10
156
  20
56.5
  0
SEQEND
  0
POLYLINE
  8
2_0
  70
1
  66
1
  0
VERTEX
  8
2_0
  10
233
  20
58.5
  0
VERTEX
  8
2_0
  10
235
  20
56.5
  0
VERTEX
  8
2_0
  10
297
  20
56.5
  0
VERTEX
  8
2_0
  10
299
  20
58.5
  0
VERTEX
  8
2_0
  10
299
  20
199.5
  0
VERTEX
  8
2_0
  10
297
  20
201.5
  0
VERTEX
  8
2_0
  10
235
  20
201.5
  0
VERTEX
  8
2_0
  10
233
  20
199.5
  0
VERTEX
  8
2_0
  10
233
  20
137.5
  0
VERTEX
  8
2_0
  10
228
  20
132.5
  0
VERTEX
  8
2_0
  10
217
  20
132.5
  0
VERTEX
  8
2_0
  10
217
  20
105.5
  0
VERTEX
  8
2_0
  10
233
  20
89.5
  0
SEQEND
  0
ENDSEC
  0
EOF
