  0
SECTION
  2
HEADER
  9
$ACADVER
  1
AC1009
  9
$INSUNITS
  70
13
  9
$EXTMIN
  10
0
  20
0
  9
$EXTMAX
  10
350
  20
275
  0
ENDSEC
  0
SECTION
  2
TABLES
  0
TABLE
  2
LTYPE
  70
1
  0
LTYPE
  2
CONTINUOUS
  70
64
  3
Solid line
  72
65
  73
0
  40
0
  0
ENDTAB
  0
TABLE
  2
LAYER
  70
2
  0
LAYER
  2
2_0
  70
0
  62
1
  6
CONTINUOUS
  0
LAYER
  2
1_0
  70
0
  62
1
  6
CONTINUOUS
  0
ENDTAB
  0
ENDSEC
  0
SECTION
  2
BLOCKS
  0
ENDSEC
  0
SECTION
  2
ENTITIES
  0
POLYLINE
  8
2_0
  70
1
  66
1
  0
VERTEX
  8
2_0
  10
165.5
  20
151
  0
VERTEX
  8
2_0
  10
170
  20
146.5
  0
VERTEX
  8
2_0
  10
170
  20
137
  0
VERTEX
  8
2_0
  10
178
  20
137
  0
VERTEX
  8
2_0
  10
178
  20
146.5
  0
VERTEX
  8
2_0
  10
182.5
  20
151
  0
VERTEX
  8
2_0
  10
197
  20
151
  0
VERTEX
  8
2_0
  10
197
  20
197
  0
VERTEX
  8
2_0
  10
188
  20
206
  0
VERTEX
  8
2_0
  10
160
  20
206
  0
VERTEX
  8
2_0
  10
151
  20
197
  0
VERTEX
  8
2_0
  10
151
  20
151
  0
SEQEND
  0
POLYLINE
  8
2_0
  70
1
  66
1
  0
VERTEX
  8
2_0
  10
155.5
  20
68
  0
VERTEX
  8
2_0
  10
160.5
  20
63
  0
VERTEX
  8
2_0
  10
187.5
  20
63
  0
VERTEX
  8
2_0
  10
192.5
  20
68
  0
VERTEX
  8
2_0
  10
192.5
  20
102.5
  0
VERTEX
  8
2_0
  10
155.5
  20
102.5
  0
SEQEND
  0
POLYLINE
  8
2_0
  70
1
  66
1
  0
VERTEX
  8
2_0
  10
127.91
  20
62
  0
VERTEX
  8
2_0
  10
130
  20
64.09
  0
VERTEX
  8
2_0
  10
130
  20
96
  0
VERTEX
  8
2_0
  10
144
  20
110
  0
VERTEX
  8
2_0
  10
157
  20
110
  0
VERTEX
  8
2_0
  10
157
  20
137
  0
VERTEX
  8
2_0
  10
135
  20
137
  0
VERTEX
  8
2_0
  10
130
  20
142
  0
VERTEX
  8
2_0
  10
130
  20
206
  0
VERTEX
  8
2_0
  10
50.59
  20
206
  0
VERTEX
  8
2_0
  10
48
  20
203.41
  0
VERTEX
  8
2_0
  10
48
  20
64.59
  0
VERTEX
  8
2_0
  10
50.59
  20
62
  0
SEQEND
  0
POLYLINE
  8
2_0
  70
1
  66
1
  0
VERTEX
  8
2_0
  10
218
  20
64.09
  0
VERTEX
  8
2_0
  10
220.09
  20
62
  0
VERTEX
  8
2_0
  10
297.41
  20
62
  0
VERTEX
  8
2_0
  10
300
  20
64.59
  0
VERTEX
  8
2_0
  10
300
  20
203.41
  0
VERTEX
  8
2_0
  10
297.41
  20
206
  0
VERTEX
  8
2_0
  10
218
  20
206
  0
VERTEX
  8
2_0
  10
218
  20
142
  0
VERTEX
  8
2_0
  10
213
  20
137
  0
VERTEX
  8
2_0
  10
191
  20
137
  0
VERTEX
  8
2_0
  10
191
  20
110
  0
VERTEX
  8
2_0
  10
204
  20
110
  0
VERTEX
  8
2_0
  10
218
  20
96
  0
SEQEND
  0
POLYLINE
  8
1_0
  70
1
  66
1
  0
VERTEX
  8
1_0
  10
161.5
  20
228.5
  0
VERTEX
  8
1_0
  10
166.5
  20
228.5
  0
VERTEX
  8
1_0
  10
166.5
  20
233.5
  0
VERTEX
  8
1_0
  10
161.5
  20
233.5
  0
VERTEX
  8
1_0
  10
161.5
  20
243.5
  0
VERTEX
  8
1_0
  10
156.5
  20
243.5
  0
VERTEX
  8
1_0
  10
156.5
  20
233.5
  0
VERTEX
  8
1_0
  10
151.5
  20
233.5
  0
VERTEX
  8
1_0
  10
151.5
  20
243.5
  0
VERTEX
  8
1_0
  10
146.5
  20
243.5
  0
VERTEX
  8
1_0
  10
146.5
  20
228.5
  0
VERTEX
  8
1_0
  10
156.5
  20
228.5
  0
VERTEX
  8
1_0
  10
156.5
  20
218.5
  0
VERTEX
  8
1_0
  10
161.5
  20
218.5
  0
SEQEND
  0
POLYLINE
  8
1_0
  70
1
  66
1
  0
VERTEX
  8
1_0
  10
185.25
  20
229.75
  0
VERTEX
  8
1_0
  10
186.5
  20
228.5
  0
VERTEX
  8
1_0
  10
186.5
  20
224.75
  0
VERTEX
  8
1_0
  10
185.25
  20
223.5
  0
VERTEX
  8
1_0
  10
177.75
  20
223.5
  0
VERTEX
  8
1_0
  10
176.5
  20
224.75
  0
VERTEX
  8
1_0
  10
171.5
  20
224.75
  0
VERTEX
  8
1_0
  10
171.5
  20
221
  0
VERTEX
  8
1_0
  10
174
  20
218.5
  0
VERTEX
  8
1_0
  10
189
  20
218.5
  0
VERTEX
  8
1_0
  10
191.5
  20
221
  0
VERTEX
  8
1_0
  10
191.5
  20
232.25
  0
VERTEX
  8
1_0
  10
189
  20
234.75
  0
VERTEX
  8
1_0
  10
176.5
  20
234.75
  0
VERTEX
  8
1_0
  10
176.5
  20
238.5
  0
VERTEX
  8
1_0
  10
191.5
  20
238.5
  0
VERTEX
  8
1_0
  10
191.5
  20
243.5
  0
VERTEX
  8
1_0
  10
171.5
  20
243.5
  0
VERTEX
  8
1_0
  10
171.5
  20
229.75
  0
SEQEND
  0
POLYLINE
  8
1_0
  70
1
  66
1
  0
VERTEX
  8
1_0
  10
36
  20
47
  0
VERTEX
  8
1_0
  10
37
  20
48
  0
VERTEX
  8
1_0
  10
47
  20
48
  0
VERTEX
  8
1_0
  10
48
  20
47
  0
VERTEX
  8
1_0
  10
48
  20
45
  0
VERTEX
  8
1_0
  10
32
  20
33
  0
VERTEX
  8
1_0
  10
32
  20
27
  0
VERTEX
  8
1_0
  10
52
  20
27
  0
VERTEX
  8
1_0
  10
52
  20
31
  0
VERTEX
  8
1_0
  10
36
  20
31
  0
VERTEX
  8
1_0
  10
42.67
  20
36
  0
VERTEX
  8
1_0
  10
52
  20
43
  0
VERTEX
  8
1_0
  10
52
  20
49
  0
VERTEX
  8
1_0
  10
49
  20
52
  0
VERTEX
  8
1_0
  10
35
  20
52
  0
VERTEX
  8
1_0
  10
32
  20
49
  0
VERTEX
  8
1_0
  10
32
  20
44.5
  0
VERTEX
  8
1_0
  10
36
  20
44.5
  0
SEQEND
  0
POLYLINE
  8
1_0
  70
1
  66
1
  0
VERTEX
  8
1_0
  10
73
  20
52
  0
VERTEX
  8
1_0
  10
73
  20
48.5
  0
VERTEX
  8
1_0
  10
67
  20
42.5
  0
VERTEX
  8
1_0
  10
61
  20
48.5
  0
VERTEX
  8
1_0
  10
61
  20
52
  0
VERTEX
  8
1_0
  10
57
  20
52
  0
VERTEX
  8
1_0
  10
57
  20
46.75
  0
VERTEX
  8
1_0
  10
64.25
  20
39.5
  0
VERTEX
  8
1_0
  10
57
  20
32.25
  0
VERTEX
  8
1_0
  10
57
  20
27
  0
VERTEX
  8
1_0
  10
61
  20
27
  0
VERTEX
  8
1_0
  10
61
  20
30.5
  0
VERTEX
  8
1_0
  10
67
  20
36.5
  0
VERTEX
  8
1_0
  10
73
  20
30.5
  0
VERTEX
  8
1_0
  10
73
  20
27
  0
VERTEX
  8
1_0
  10
77
  20
27
  0
VERTEX
  8
1_0
  10
77
  20
32.25
  0
VERTEX
  8
1_0
  10
69.75
  20
39.5
  0
VERTEX
  8
1_0
  10
77
  20
46.75
  0
VERTEX
  8
1_0
  10
77
  20
52
  0
SEQEND
  0
POLYLINE
  8
1_0
  70
1
  66
1
  0
VERTEX
  8
1_0
  10
86
  20
47
  0
VERTEX
  8
1_0
  10
87
  20
48
  0
VERTEX
  8
1_0
  10
97
  20
48
  0
VERTEX
  8
1_0
  10
98
  20
47
  0
VERTEX
  8
1_0
  10
98
  20
45
  0
VERTEX
  8
1_0
  10
82
  20
33
  0
VERTEX
  8
1_0
  10
82
  20
27
  0
VERTEX
  8
1_0
  10
102
  20
27
  0
VERTEX
  8
1_0
  10
102
  20
31
  0
VERTEX
  8
1_0
  10
86
  20
31
  0
VERTEX
  8
1_0
  10
92.67
  20
36
  0
VERTEX
  8
1_0
  10
102
  20
43
  0
VERTEX
  8
1_0
  10
102
  20
49
  0
VERTEX
  8
1_0
  10
99
  20
52
  0
VERTEX
  8
1_0
  10
85
  20
52
  0
VERTEX
  8
1_0
  10
82
  20
49
  0
VERTEX
  8
1_0
  10
82
  20
44.5
  0
VERTEX
  8
1_0
  10
86
  20
44.5
  0
SEQEND
  0
POLYLINE
  8
1_0
  70
1
  66
1
  0
VERTEX
  8
1_0
  10
122.25
  20
39
  0
VERTEX
  8
1_0
  10
123
  20
38.25
  0
VERTEX
  8
1_0
  10
123
  20
32
  0
VERTEX
  8
1_0
  10
122
  20
31
  0
VERTEX
  8
1_0
  10
112
  20
31
  0
VERTEX
  8
1_0
  10
111
  20
32
  0
VERTEX
  8
1_0
  10
111
  20
34.5
  0
VERTEX
  8
1_0
  10
107
  20
34.5
  0
VERTEX
  8
1_0
  10
107
  20
30
  0
VERTEX
  8
1_0
  10
110
  20
27
  0
VERTEX
  8
1_0
  10
124
  20
27
  0
VERTEX
  8
1_0
  10
127
  20
30
  0
VERTEX
  8
1_0
  10
127
  20
40.25
  0
VERTEX
  8
1_0
  10
124.25
  20
43
  0
VERTEX
  8
1_0
  10
111
  20
43
  0
VERTEX
  8
1_0
  10
111
  20
48
  0
VERTEX
  8
1_0
  10
127
  20
48
  0
VERTEX
  8
1_0
  10
127
  20
52
  0
VERTEX
  8
1_0
  10
107
  20
52
  0
VERTEX
  8
1_0
  10
107
  20
39
  0
SEQEND
  0
POLYLINE
  8
1_0
  70
1
  66
1
  0
VERTEX
  8
1_0
  10
0
  20
0
  0
VERTEX
  8
1_0
  10
25
  20
0
  0
VERTEX
  8
1_0
  10
25
  20
250
  0
VERTEX
  8
1_0
  10
325
  20
250
  0
VERTEX
  8
1_0
  10
325
  20
25
  0
VERTEX
  8
1_0
  10
25
  20
25
  0
VERTEX
  8
1_0
  10
25
  20
0
  0
VERTEX
  8
1_0
  10
350
  20
0
  0
VERTEX
  8
1_0
  10
350
  20
275
  0
VERTEX
  8
1_0
  10
0
  20
275
  0
SEQEND
  0
ENDSEC
  0
EOF
