  0
SECTION
  2
HEADER
  9
$ACADVER
  1
AC1009
  9
$INSUNITS
  70
13
  9
$EXTMIN
  10
59
  20
-436
  9
$EXTMAX
  10
2139
  20
409
  0
ENDSEC
  0
SECTION
  2
TABLES
  0
TABLE
  2
LTYPE
  70
1
  0
LTYPE
  2
CONTINUOUS
  70
64
  3
Solid line
  72
65
  73
0
  40
0
  0
ENDTAB
  0
TABLE
  2
LAYER
  70
3
  0
LAYER
  2
Nitride_Etch
  70
0
  62
1
  6
CONTINUOUS
  0
LAYER
  2
Thick_Metal
  70
0
  62
1
  6
CONTINUOUS
  0
LAYER
  2
30_0
  70
0
  62
1
  6
CONTINUOUS
  0
ENDTAB
  0
ENDSEC
  0
SECTION
  2
BLOCKS
  0
ENDSEC
  0
SECTION
  2
ENTITIES
  0
POLYLINE
  8
Nitride_Etch
  70
1
  66
1
  0
VERTEX
  8
Nitride_Etch
  10
59
  20
-436
  0
VERTEX
  8
Nitride_Etch
  10
2139
  20
-436
  0
VERTEX
  8
Nitride_Etch
  10
2139
  20
-386
  0
VERTEX
  8
Nitride_Etch
  10
59
  20
-386
  0
VERTEX
  8
Nitride_Etch
  10
59
  20
-436
  0
SEQEND
  0
POLYLINE
  8
Nitride_Etch
  70
1
  66
1
  0
VERTEX
  8
Nitride_Etch
  10
59
  20
359
  0
VERTEX
  8
Nitride_Etch
  10
2139
  20
359
  0
VERTEX
  8
Nitride_Etch
  10
2139
  20
409
  0
VERTEX
  8
Nitride_Etch
  10
59
  20
409
  0
VERTEX
  8
Nitride_Etch
  10
59
  20
359
  0
SEQEND
  0
POLYLINE
  8
Nitride_Etch
  70
1
  66
1
  0
VERTEX
  8
Nitride_Etch
  10
2089
  20
-386
  0
VERTEX
  8
Nitride_Etch
  10
2139
  20
-386
  0
VERTEX
  8
Nitride_Etch
  10
2139
  20
359
  0
VERTEX
  8
Nitride_Etch
  10
2089
  20
359
  0
VERTEX
  8
Nitride_Etch
  10
2089
  20
-386
  0
SEQEND
  0
POLYLINE
  8
Nitride_Etch
  70
1
  66
1
  0
VERTEX
  8
Nitride_Etch
  10
59
  20
-386
  0
VERTEX
  8
Nitride_Etch
  10
109
  20
-386
  0
VERTEX
  8
Nitride_Etch
  10
109
  20
359
  0
VERTEX
  8
Nitride_Etch
  10
59
  20
359
  0
VERTEX
  8
Nitride_Etch
  10
59
  20
-386
  0
SEQEND
  0
POLYLINE
  8
Thick_Metal
  70
1
  66
1
  0
VERTEX
  8
Thick_Metal
  10
1001.5
  20
230
  0
VERTEX
  8
Thick_Metal
  10
1103.5
  20
230
  0
VERTEX
  8
Thick_Metal
  10
1103.5
  20
332
  0
VERTEX
  8
Thick_Metal
  10
1001.5
  20
332
  0
VERTEX
  8
Thick_Metal
  10
1001.5
  20
230
  0
SEQEND
  0
POLYLINE
  8
Thick_Metal
  70
1
  66
1
  0
VERTEX
  8
Thick_Metal
  10
505
  20
230
  0
VERTEX
  8
Thick_Metal
  10
607
  20
230
  0
VERTEX
  8
Thick_Metal
  10
607
  20
332
  0
VERTEX
  8
Thick_Metal
  10
505
  20
332
  0
VERTEX
  8
Thick_Metal
  10
505
  20
230
  0
SEQEND
  0
POLYLINE
  8
Thick_Metal
  70
1
  66
1
  0
VERTEX
  8
Thick_Metal
  10
684.5
  20
230
  0
VERTEX
  8
Thick_Metal
  10
786.5
  20
230
  0
VERTEX
  8
Thick_Metal
  10
786.5
  20
332
  0
VERTEX
  8
Thick_Metal
  10
684.5
  20
332
  0
VERTEX
  8
Thick_Metal
  10
684.5
  20
230
  0
SEQEND
  0
POLYLINE
  8
Thick_Metal
  70
1
  66
1
  0
VERTEX
  8
Thick_Metal
  10
355
  20
230
  0
VERTEX
  8
Thick_Metal
  10
457
  20
230
  0
VERTEX
  8
Thick_Metal
  10
457
  20
332
  0
VERTEX
  8
Thick_Metal
  10
355
  20
332
  0
VERTEX
  8
Thick_Metal
  10
355
  20
230
  0
SEQEND
  0
POLYLINE
  8
Thick_Metal
  70
1
  66
1
  0
VERTEX
  8
Thick_Metal
  10
1451.5
  20
230
  0
VERTEX
  8
Thick_Metal
  10
1553.5
  20
230
  0
VERTEX
  8
Thick_Metal
  10
1553.5
  20
332
  0
VERTEX
  8
Thick_Metal
  10
1451.5
  20
332
  0
VERTEX
  8
Thick_Metal
  10
1451.5
  20
230
  0
SEQEND
  0
POLYLINE
  8
Thick_Metal
  70
1
  66
1
  0
VERTEX
  8
Thick_Metal
  10
1301.5
  20
230
  0
VERTEX
  8
Thick_Metal
  10
1403.5
  20
230
  0
VERTEX
  8
Thick_Metal
  10
1403.5
  20
332
  0
VERTEX
  8
Thick_Metal
  10
1301.5
  20
332
  0
VERTEX
  8
Thick_Metal
  10
1301.5
  20
230
  0
SEQEND
  0
POLYLINE
  8
Thick_Metal
  70
1
  66
1
  0
VERTEX
  8
Thick_Metal
  10
851.5
  20
230
  0
VERTEX
  8
Thick_Metal
  10
953.5
  20
230
  0
VERTEX
  8
Thick_Metal
  10
953.5
  20
332
  0
VERTEX
  8
Thick_Metal
  10
851.5
  20
332
  0
VERTEX
  8
Thick_Metal
  10
851.5
  20
230
  0
SEQEND
  0
POLYLINE
  8
Thick_Metal
  70
1
  66
1
  0
VERTEX
  8
Thick_Metal
  10
1151.5
  20
230
  0
VERTEX
  8
Thick_Metal
  10
1253.5
  20
230
  0
VERTEX
  8
Thick_Metal
  10
1253.5
  20
332
  0
VERTEX
  8
Thick_Metal
  10
1151.5
  20
332
  0
VERTEX
  8
Thick_Metal
  10
1151.5
  20
230
  0
SEQEND
  0
POLYLINE
  8
Thick_Metal
  70
1
  66
1
  0
VERTEX
  8
Thick_Metal
  10
685.5
  20
231
  0
VERTEX
  8
Thick_Metal
  10
785.5
  20
231
  0
VERTEX
  8
Thick_Metal
  10
785.5
  20
331
  0
VERTEX
  8
Thick_Metal
  10
685.5
  20
331
  0
VERTEX
  8
Thick_Metal
  10
685.5
  20
231
  0
SEQEND
  0
POLYLINE
  8
Thick_Metal
  70
1
  66
1
  0
VERTEX
  8
Thick_Metal
  10
1002.5
  20
231
  0
VERTEX
  8
Thick_Metal
  10
1102.5
  20
231
  0
VERTEX
  8
Thick_Metal
  10
1102.5
  20
331
  0
VERTEX
  8
Thick_Metal
  10
1002.5
  20
331
  0
VERTEX
  8
Thick_Metal
  10
1002.5
  20
231
  0
SEQEND
  0
POLYLINE
  8
Thick_Metal
  70
1
  66
1
  0
VERTEX
  8
Thick_Metal
  10
1302.5
  20
231
  0
VERTEX
  8
Thick_Metal
  10
1402.5
  20
231
  0
VERTEX
  8
Thick_Metal
  10
1402.5
  20
331
  0
VERTEX
  8
Thick_Metal
  10
1302.5
  20
331
  0
VERTEX
  8
Thick_Metal
  10
1302.5
  20
231
  0
SEQEND
  0
POLYLINE
  8
Thick_Metal
  70
1
  66
1
  0
VERTEX
  8
Thick_Metal
  10
356
  20
231
  0
VERTEX
  8
Thick_Metal
  10
456
  20
231
  0
VERTEX
  8
Thick_Metal
  10
456
  20
331
  0
VERTEX
  8
Thick_Metal
  10
356
  20
331
  0
VERTEX
  8
Thick_Metal
  10
356
  20
231
  0
SEQEND
  0
POLYLINE
  8
Thick_Metal
  70
1
  66
1
  0
VERTEX
  8
Thick_Metal
  10
506
  20
231
  0
VERTEX
  8
Thick_Metal
  10
606
  20
231
  0
VERTEX
  8
Thick_Metal
  10
606
  20
331
  0
VERTEX
  8
Thick_Metal
  10
506
  20
331
  0
VERTEX
  8
Thick_Metal
  10
506
  20
231
  0
SEQEND
  0
POLYLINE
  8
Thick_Metal
  70
1
  66
1
  0
VERTEX
  8
Thick_Metal
  10
852.5
  20
231
  0
VERTEX
  8
Thick_Metal
  10
952.5
  20
231
  0
VERTEX
  8
Thick_Metal
  10
952.5
  20
331
  0
VERTEX
  8
Thick_Metal
  10
852.5
  20
331
  0
VERTEX
  8
Thick_Metal
  10
852.5
  20
231
  0
SEQEND
  0
POLYLINE
  8
Thick_Metal
  70
1
  66
1
  0
VERTEX
  8
Thick_Metal
  10
1152.5
  20
231
  0
VERTEX
  8
Thick_Metal
  10
1252.5
  20
231
  0
VERTEX
  8
Thick_Metal
  10
1252.5
  20
331
  0
VERTEX
  8
Thick_Metal
  10
1152.5
  20
331
  0
VERTEX
  8
Thick_Metal
  10
1152.5
  20
231
  0
SEQEND
  0
POLYLINE
  8
Thick_Metal
  70
1
  66
1
  0
VERTEX
  8
Thick_Metal
  10
1452.5
  20
231
  0
VERTEX
  8
Thick_Metal
  10
1552.5
  20
231
  0
VERTEX
  8
Thick_Metal
  10
1552.5
  20
331
  0
VERTEX
  8
Thick_Metal
  10
1452.5
  20
331
  0
VERTEX
  8
Thick_Metal
  10
1452.5
  20
231
  0
SEQEND
  0
POLYLINE
  8
Thick_Metal
  70
1
  66
1
  0
VERTEX
  8
Thick_Metal
  10
150
  20
-358
  0
VERTEX
  8
Thick_Metal
  10
250
  20
-358
  0
VERTEX
  8
Thick_Metal
  10
250
  20
-258
  0
VERTEX
  8
Thick_Metal
  10
150
  20
-258
  0
VERTEX
  8
Thick_Metal
  10
150
  20
-358
  0
SEQEND
  0
POLYLINE
  8
Thick_Metal
  70
1
  66
1
  0
VERTEX
  8
Thick_Metal
  10
2049.5
  20
86
  0
VERTEX
  8
Thick_Metal
  10
1949.5
  20
86
  0
VERTEX
  8
Thick_Metal
  10
1949.5
  20
-14
  0
VERTEX
  8
Thick_Metal
  10
2049.5
  20
-14
  0
VERTEX
  8
Thick_Metal
  10
2049.5
  20
86
  0
SEQEND
  0
POLYLINE
  8
Thick_Metal
  70
1
  66
1
  0
VERTEX
  8
Thick_Metal
  10
1561.5
  20
232
  0
VERTEX
  8
Thick_Metal
  10
1661.5
  20
232
  0
VERTEX
  8
Thick_Metal
  10
1661.5
  20
332
  0
VERTEX
  8
Thick_Metal
  10
1561.5
  20
332
  0
VERTEX
  8
Thick_Metal
  10
1561.5
  20
232
  0
SEQEND
  0
POLYLINE
  8
Thick_Metal
  70
1
  66
1
  0
VERTEX
  8
Thick_Metal
  10
247
  20
232
  0
VERTEX
  8
Thick_Metal
  10
347
  20
232
  0
VERTEX
  8
Thick_Metal
  10
347
  20
332
  0
VERTEX
  8
Thick_Metal
  10
247
  20
332
  0
VERTEX
  8
Thick_Metal
  10
247
  20
232
  0
SEQEND
  0
POLYLINE
  8
Thick_Metal
  70
1
  66
1
  0
VERTEX
  8
Thick_Metal
  10
150
  20
-14
  0
VERTEX
  8
Thick_Metal
  10
250
  20
-14
  0
VERTEX
  8
Thick_Metal
  10
250
  20
86
  0
VERTEX
  8
Thick_Metal
  10
150
  20
86
  0
VERTEX
  8
Thick_Metal
  10
150
  20
-14
  0
SEQEND
  0
POLYLINE
  8
Thick_Metal
  70
1
  66
1
  0
VERTEX
  8
Thick_Metal
  10
1865.5
  20
232
  0
VERTEX
  8
Thick_Metal
  10
1965.5
  20
232
  0
VERTEX
  8
Thick_Metal
  10
1965.5
  20
332
  0
VERTEX
  8
Thick_Metal
  10
1865.5
  20
332
  0
VERTEX
  8
Thick_Metal
  10
1865.5
  20
232
  0
SEQEND
  0
POLYLINE
  8
Thick_Metal
  70
1
  66
1
  0
VERTEX
  8
Thick_Metal
  10
685.5
  20
231
  0
VERTEX
  8
Thick_Metal
  10
785.5
  20
231
  0
VERTEX
  8
Thick_Metal
  10
785.5
  20
331
  0
VERTEX
  8
Thick_Metal
  10
685.5
  20
331
  0
VERTEX
  8
Thick_Metal
  10
685.5
  20
231
  0
SEQEND
  0
POLYLINE
  8
Thick_Metal
  70
1
  66
1
  0
VERTEX
  8
Thick_Metal
  10
1002.5
  20
231
  0
VERTEX
  8
Thick_Metal
  10
1102.5
  20
231
  0
VERTEX
  8
Thick_Metal
  10
1102.5
  20
331
  0
VERTEX
  8
Thick_Metal
  10
1002.5
  20
331
  0
VERTEX
  8
Thick_Metal
  10
1002.5
  20
231
  0
SEQEND
  0
POLYLINE
  8
Thick_Metal
  70
1
  66
1
  0
VERTEX
  8
Thick_Metal
  10
1452.5
  20
231
  0
VERTEX
  8
Thick_Metal
  10
1552.5
  20
231
  0
VERTEX
  8
Thick_Metal
  10
1552.5
  20
331
  0
VERTEX
  8
Thick_Metal
  10
1452.5
  20
331
  0
VERTEX
  8
Thick_Metal
  10
1452.5
  20
231
  0
SEQEND
  0
POLYLINE
  8
Thick_Metal
  70
1
  66
1
  0
VERTEX
  8
Thick_Metal
  10
2049.5
  20
-258
  0
VERTEX
  8
Thick_Metal
  10
1949.5
  20
-258
  0
VERTEX
  8
Thick_Metal
  10
1949.5
  20
-358
  0
VERTEX
  8
Thick_Metal
  10
2049.5
  20
-358
  0
VERTEX
  8
Thick_Metal
  10
2049.5
  20
-258
  0
SEQEND
  0
POLYLINE
  8
Thick_Metal
  70
1
  66
1
  0
VERTEX
  8
Thick_Metal
  10
506
  20
231
  0
VERTEX
  8
Thick_Metal
  10
606
  20
231
  0
VERTEX
  8
Thick_Metal
  10
606
  20
331
  0
VERTEX
  8
Thick_Metal
  10
506
  20
331
  0
VERTEX
  8
Thick_Metal
  10
506
  20
231
  0
SEQEND
  0
POLYLINE
  8
Thick_Metal
  70
1
  66
1
  0
VERTEX
  8
Thick_Metal
  10
852.5
  20
231
  0
VERTEX
  8
Thick_Metal
  10
952.5
  20
231
  0
VERTEX
  8
Thick_Metal
  10
952.5
  20
331
  0
VERTEX
  8
Thick_Metal
  10
852.5
  20
331
  0
VERTEX
  8
Thick_Metal
  10
852.5
  20
231
  0
SEQEND
  0
POLYLINE
  8
Thick_Metal
  70
1
  66
1
  0
VERTEX
  8
Thick_Metal
  10
1302.5
  20
231
  0
VERTEX
  8
Thick_Metal
  10
1402.5
  20
231
  0
VERTEX
  8
Thick_Metal
  10
1402.5
  20
331
  0
VERTEX
  8
Thick_Metal
  10
1302.5
  20
331
  0
VERTEX
  8
Thick_Metal
  10
1302.5
  20
231
  0
SEQEND
  0
POLYLINE
  8
Thick_Metal
  70
1
  66
1
  0
VERTEX
  8
Thick_Metal
  10
1152.5
  20
231
  0
VERTEX
  8
Thick_Metal
  10
1252.5
  20
231
  0
VERTEX
  8
Thick_Metal
  10
1252.5
  20
331
  0
VERTEX
  8
Thick_Metal
  10
1152.5
  20
331
  0
VERTEX
  8
Thick_Metal
  10
1152.5
  20
231
  0
SEQEND
  0
POLYLINE
  8
Thick_Metal
  70
1
  66
1
  0
VERTEX
  8
Thick_Metal
  10
356
  20
231
  0
VERTEX
  8
Thick_Metal
  10
456
  20
231
  0
VERTEX
  8
Thick_Metal
  10
456
  20
331
  0
VERTEX
  8
Thick_Metal
  10
356
  20
331
  0
VERTEX
  8
Thick_Metal
  10
356
  20
231
  0
SEQEND
  0
POLYLINE
  8
Thick_Metal
  70
1
  66
1
  0
VERTEX
  8
Thick_Metal
  10
686.5
  20
232
  0
VERTEX
  8
Thick_Metal
  10
784.5
  20
232
  0
VERTEX
  8
Thick_Metal
  10
784.5
  20
330
  0
VERTEX
  8
Thick_Metal
  10
686.5
  20
330
  0
VERTEX
  8
Thick_Metal
  10
686.5
  20
232
  0
SEQEND
  0
POLYLINE
  8
Thick_Metal
  70
1
  66
1
  0
VERTEX
  8
Thick_Metal
  10
1153.5
  20
232
  0
VERTEX
  8
Thick_Metal
  10
1251.5
  20
232
  0
VERTEX
  8
Thick_Metal
  10
1251.5
  20
330
  0
VERTEX
  8
Thick_Metal
  10
1153.5
  20
330
  0
VERTEX
  8
Thick_Metal
  10
1153.5
  20
232
  0
SEQEND
  0
POLYLINE
  8
Thick_Metal
  70
1
  66
1
  0
VERTEX
  8
Thick_Metal
  10
1453.5
  20
232
  0
VERTEX
  8
Thick_Metal
  10
1551.5
  20
232
  0
VERTEX
  8
Thick_Metal
  10
1551.5
  20
330
  0
VERTEX
  8
Thick_Metal
  10
1453.5
  20
330
  0
VERTEX
  8
Thick_Metal
  10
1453.5
  20
232
  0
SEQEND
  0
POLYLINE
  8
Thick_Metal
  70
1
  66
1
  0
VERTEX
  8
Thick_Metal
  10
151
  20
-357
  0
VERTEX
  8
Thick_Metal
  10
249
  20
-357
  0
VERTEX
  8
Thick_Metal
  10
249
  20
-259
  0
VERTEX
  8
Thick_Metal
  10
151
  20
-259
  0
VERTEX
  8
Thick_Metal
  10
151
  20
-357
  0
SEQEND
  0
POLYLINE
  8
Thick_Metal
  70
1
  66
1
  0
VERTEX
  8
Thick_Metal
  10
2048.5
  20
85
  0
VERTEX
  8
Thick_Metal
  10
1950.5
  20
85
  0
VERTEX
  8
Thick_Metal
  10
1950.5
  20
-13
  0
VERTEX
  8
Thick_Metal
  10
2048.5
  20
-13
  0
VERTEX
  8
Thick_Metal
  10
2048.5
  20
85
  0
SEQEND
  0
POLYLINE
  8
Thick_Metal
  70
1
  66
1
  0
VERTEX
  8
Thick_Metal
  10
1562.5
  20
233
  0
VERTEX
  8
Thick_Metal
  10
1660.5
  20
233
  0
VERTEX
  8
Thick_Metal
  10
1660.5
  20
331
  0
VERTEX
  8
Thick_Metal
  10
1562.5
  20
331
  0
VERTEX
  8
Thick_Metal
  10
1562.5
  20
233
  0
SEQEND
  0
POLYLINE
  8
Thick_Metal
  70
1
  66
1
  0
VERTEX
  8
Thick_Metal
  10
853.5
  20
232
  0
VERTEX
  8
Thick_Metal
  10
951.5
  20
232
  0
VERTEX
  8
Thick_Metal
  10
951.5
  20
330
  0
VERTEX
  8
Thick_Metal
  10
853.5
  20
330
  0
VERTEX
  8
Thick_Metal
  10
853.5
  20
232
  0
SEQEND
  0
POLYLINE
  8
Thick_Metal
  70
1
  66
1
  0
VERTEX
  8
Thick_Metal
  10
507
  20
232
  0
VERTEX
  8
Thick_Metal
  10
605
  20
232
  0
VERTEX
  8
Thick_Metal
  10
605
  20
330
  0
VERTEX
  8
Thick_Metal
  10
507
  20
330
  0
VERTEX
  8
Thick_Metal
  10
507
  20
232
  0
SEQEND
  0
POLYLINE
  8
Thick_Metal
  70
1
  66
1
  0
VERTEX
  8
Thick_Metal
  10
1003.5
  20
232
  0
VERTEX
  8
Thick_Metal
  10
1101.5
  20
232
  0
VERTEX
  8
Thick_Metal
  10
1101.5
  20
330
  0
VERTEX
  8
Thick_Metal
  10
1003.5
  20
330
  0
VERTEX
  8
Thick_Metal
  10
1003.5
  20
232
  0
SEQEND
  0
POLYLINE
  8
Thick_Metal
  70
1
  66
1
  0
VERTEX
  8
Thick_Metal
  10
1303.5
  20
232
  0
VERTEX
  8
Thick_Metal
  10
1401.5
  20
232
  0
VERTEX
  8
Thick_Metal
  10
1401.5
  20
330
  0
VERTEX
  8
Thick_Metal
  10
1303.5
  20
330
  0
VERTEX
  8
Thick_Metal
  10
1303.5
  20
232
  0
SEQEND
  0
POLYLINE
  8
Thick_Metal
  70
1
  66
1
  0
VERTEX
  8
Thick_Metal
  10
357
  20
232
  0
VERTEX
  8
Thick_Metal
  10
455
  20
232
  0
VERTEX
  8
Thick_Metal
  10
455
  20
330
  0
VERTEX
  8
Thick_Metal
  10
357
  20
330
  0
VERTEX
  8
Thick_Metal
  10
357
  20
232
  0
SEQEND
  0
POLYLINE
  8
Thick_Metal
  70
1
  66
1
  0
VERTEX
  8
Thick_Metal
  10
248
  20
233
  0
VERTEX
  8
Thick_Metal
  10
346
  20
233
  0
VERTEX
  8
Thick_Metal
  10
346
  20
331
  0
VERTEX
  8
Thick_Metal
  10
248
  20
331
  0
VERTEX
  8
Thick_Metal
  10
248
  20
233
  0
SEQEND
  0
POLYLINE
  8
Thick_Metal
  70
1
  66
1
  0
VERTEX
  8
Thick_Metal
  10
151
  20
-13
  0
VERTEX
  8
Thick_Metal
  10
249
  20
-13
  0
VERTEX
  8
Thick_Metal
  10
249
  20
85
  0
VERTEX
  8
Thick_Metal
  10
151
  20
85
  0
VERTEX
  8
Thick_Metal
  10
151
  20
-13
  0
SEQEND
  0
POLYLINE
  8
Thick_Metal
  70
1
  66
1
  0
VERTEX
  8
Thick_Metal
  10
2048.5
  20
-259
  0
VERTEX
  8
Thick_Metal
  10
1950.5
  20
-259
  0
VERTEX
  8
Thick_Metal
  10
1950.5
  20
-357
  0
VERTEX
  8
Thick_Metal
  10
2048.5
  20
-357
  0
VERTEX
  8
Thick_Metal
  10
2048.5
  20
-259
  0
SEQEND
  0
POLYLINE
  8
Thick_Metal
  70
1
  66
1
  0
VERTEX
  8
Thick_Metal
  10
1866.5
  20
233
  0
VERTEX
  8
Thick_Metal
  10
1964.5
  20
233
  0
VERTEX
  8
Thick_Metal
  10
1964.5
  20
331
  0
VERTEX
  8
Thick_Metal
  10
1866.5
  20
331
  0
VERTEX
  8
Thick_Metal
  10
1866.5
  20
233
  0
SEQEND
  0
POLYLINE
  8
Thick_Metal
  70
1
  66
1
  0
VERTEX
  8
Thick_Metal
  10
248
  20
233
  0
VERTEX
  8
Thick_Metal
  10
346
  20
233
  0
VERTEX
  8
Thick_Metal
  10
346
  20
331
  0
VERTEX
  8
Thick_Metal
  10
248
  20
331
  0
VERTEX
  8
Thick_Metal
  10
248
  20
233
  0
SEQEND
  0
POLYLINE
  8
Thick_Metal
  70
1
  66
1
  0
VERTEX
  8
Thick_Metal
  10
151
  20
-357
  0
VERTEX
  8
Thick_Metal
  10
249
  20
-357
  0
VERTEX
  8
Thick_Metal
  10
249
  20
-259
  0
VERTEX
  8
Thick_Metal
  10
151
  20
-259
  0
VERTEX
  8
Thick_Metal
  10
151
  20
-357
  0
SEQEND
  0
POLYLINE
  8
Thick_Metal
  70
1
  66
1
  0
VERTEX
  8
Thick_Metal
  10
151
  20
-13
  0
VERTEX
  8
Thick_Metal
  10
249
  20
-13
  0
VERTEX
  8
Thick_Metal
  10
249
  20
85
  0
VERTEX
  8
Thick_Metal
  10
151
  20
85
  0
VERTEX
  8
Thick_Metal
  10
151
  20
-13
  0
SEQEND
  0
POLYLINE
  8
Thick_Metal
  70
1
  66
1
  0
VERTEX
  8
Thick_Metal
  10
2048.5
  20
85
  0
VERTEX
  8
Thick_Metal
  10
1950.5
  20
85
  0
VERTEX
  8
Thick_Metal
  10
1950.5
  20
-13
  0
VERTEX
  8
Thick_Metal
  10
2048.5
  20
-13
  0
VERTEX
  8
Thick_Metal
  10
2048.5
  20
85
  0
SEQEND
  0
POLYLINE
  8
Thick_Metal
  70
1
  66
1
  0
VERTEX
  8
Thick_Metal
  10
2048.5
  20
-259
  0
VERTEX
  8
Thick_Metal
  10
1950.5
  20
-259
  0
VERTEX
  8
Thick_Metal
  10
1950.5
  20
-357
  0
VERTEX
  8
Thick_Metal
  10
2048.5
  20
-357
  0
VERTEX
  8
Thick_Metal
  10
2048.5
  20
-259
  0
SEQEND
  0
POLYLINE
  8
Thick_Metal
  70
1
  66
1
  0
VERTEX
  8
Thick_Metal
  10
1562.5
  20
233
  0
VERTEX
  8
Thick_Metal
  10
1660.5
  20
233
  0
VERTEX
  8
Thick_Metal
  10
1660.5
  20
331
  0
VERTEX
  8
Thick_Metal
  10
1562.5
  20
331
  0
VERTEX
  8
Thick_Metal
  10
1562.5
  20
233
  0
SEQEND
  0
POLYLINE
  8
Thick_Metal
  70
1
  66
1
  0
VERTEX
  8
Thick_Metal
  10
1866.5
  20
233
  0
VERTEX
  8
Thick_Metal
  10
1964.5
  20
233
  0
VERTEX
  8
Thick_Metal
  10
1964.5
  20
331
  0
VERTEX
  8
Thick_Metal
  10
1866.5
  20
331
  0
VERTEX
  8
Thick_Metal
  10
1866.5
  20
233
  0
SEQEND
  0
POLYLINE
  8
Thick_Metal
  70
1
  66
1
  0
VERTEX
  8
Thick_Metal
  10
249
  20
234
  0
VERTEX
  8
Thick_Metal
  10
345
  20
234
  0
VERTEX
  8
Thick_Metal
  10
345
  20
330
  0
VERTEX
  8
Thick_Metal
  10
249
  20
330
  0
VERTEX
  8
Thick_Metal
  10
249
  20
234
  0
SEQEND
  0
POLYLINE
  8
Thick_Metal
  70
1
  66
1
  0
VERTEX
  8
Thick_Metal
  10
152
  20
-12
  0
VERTEX
  8
Thick_Metal
  10
248
  20
-12
  0
VERTEX
  8
Thick_Metal
  10
248
  20
84
  0
VERTEX
  8
Thick_Metal
  10
152
  20
84
  0
VERTEX
  8
Thick_Metal
  10
152
  20
-12
  0
SEQEND
  0
POLYLINE
  8
Thick_Metal
  70
1
  66
1
  0
VERTEX
  8
Thick_Metal
  10
2047.5
  20
-260
  0
VERTEX
  8
Thick_Metal
  10
1951.5
  20
-260
  0
VERTEX
  8
Thick_Metal
  10
1951.5
  20
-356
  0
VERTEX
  8
Thick_Metal
  10
2047.5
  20
-356
  0
VERTEX
  8
Thick_Metal
  10
2047.5
  20
-260
  0
SEQEND
  0
POLYLINE
  8
Thick_Metal
  70
1
  66
1
  0
VERTEX
  8
Thick_Metal
  10
1867.5
  20
234
  0
VERTEX
  8
Thick_Metal
  10
1963.5
  20
234
  0
VERTEX
  8
Thick_Metal
  10
1963.5
  20
330
  0
VERTEX
  8
Thick_Metal
  10
1867.5
  20
330
  0
VERTEX
  8
Thick_Metal
  10
1867.5
  20
234
  0
SEQEND
  0
POLYLINE
  8
Thick_Metal
  70
1
  66
1
  0
VERTEX
  8
Thick_Metal
  10
152
  20
-356
  0
VERTEX
  8
Thick_Metal
  10
248
  20
-356
  0
VERTEX
  8
Thick_Metal
  10
248
  20
-260
  0
VERTEX
  8
Thick_Metal
  10
152
  20
-260
  0
VERTEX
  8
Thick_Metal
  10
152
  20
-356
  0
SEQEND
  0
POLYLINE
  8
Thick_Metal
  70
1
  66
1
  0
VERTEX
  8
Thick_Metal
  10
2047.5
  20
84
  0
VERTEX
  8
Thick_Metal
  10
1951.5
  20
84
  0
VERTEX
  8
Thick_Metal
  10
1951.5
  20
-12
  0
VERTEX
  8
Thick_Metal
  10
2047.5
  20
-12
  0
VERTEX
  8
Thick_Metal
  10
2047.5
  20
84
  0
SEQEND
  0
POLYLINE
  8
Thick_Metal
  70
1
  66
1
  0
VERTEX
  8
Thick_Metal
  10
1563.5
  20
234
  0
VERTEX
  8
Thick_Metal
  10
1659.5
  20
234
  0
VERTEX
  8
Thick_Metal
  10
1659.5
  20
330
  0
VERTEX
  8
Thick_Metal
  10
1563.5
  20
330
  0
VERTEX
  8
Thick_Metal
  10
1563.5
  20
234
  0
SEQEND
  0
POLYLINE
  8
Thick_Metal
  70
1
  66
1
  0
VERTEX
  8
Thick_Metal
  10
169
  20
233
  0
VERTEX
  8
Thick_Metal
  10
256
  20
233
  0
VERTEX
  8
Thick_Metal
  10
256
  20
331
  0
VERTEX
  8
Thick_Metal
  10
169
  20
331
  0
VERTEX
  8
Thick_Metal
  10
169
  20
233
  0
SEQEND
  0
POLYLINE
  8
Thick_Metal
  70
1
  66
1
  0
VERTEX
  8
Thick_Metal
  10
169
  20
233
  0
VERTEX
  8
Thick_Metal
  10
256
  20
233
  0
VERTEX
  8
Thick_Metal
  10
256
  20
331
  0
VERTEX
  8
Thick_Metal
  10
169
  20
331
  0
VERTEX
  8
Thick_Metal
  10
169
  20
233
  0
SEQEND
  0
POLYLINE
  8
Thick_Metal
  70
1
  66
1
  0
VERTEX
  8
Thick_Metal
  10
170
  20
234
  0
VERTEX
  8
Thick_Metal
  10
255
  20
234
  0
VERTEX
  8
Thick_Metal
  10
255
  20
330
  0
VERTEX
  8
Thick_Metal
  10
170
  20
330
  0
VERTEX
  8
Thick_Metal
  10
170
  20
234
  0
SEQEND
  0
POLYLINE
  8
Thick_Metal
  70
1
  66
1
  0
VERTEX
  8
Thick_Metal
  10
253
  20
238
  0
VERTEX
  8
Thick_Metal
  10
341
  20
238
  0
VERTEX
  8
Thick_Metal
  10
341
  20
326
  0
VERTEX
  8
Thick_Metal
  10
253
  20
326
  0
VERTEX
  8
Thick_Metal
  10
253
  20
238
  0
SEQEND
  0
POLYLINE
  8
Thick_Metal
  70
1
  66
1
  0
VERTEX
  8
Thick_Metal
  10
156
  20
-352
  0
VERTEX
  8
Thick_Metal
  10
244
  20
-352
  0
VERTEX
  8
Thick_Metal
  10
244
  20
-264
  0
VERTEX
  8
Thick_Metal
  10
156
  20
-264
  0
VERTEX
  8
Thick_Metal
  10
156
  20
-352
  0
SEQEND
  0
POLYLINE
  8
Thick_Metal
  70
1
  66
1
  0
VERTEX
  8
Thick_Metal
  10
156
  20
-8
  0
VERTEX
  8
Thick_Metal
  10
244
  20
-8
  0
VERTEX
  8
Thick_Metal
  10
244
  20
80
  0
VERTEX
  8
Thick_Metal
  10
156
  20
80
  0
VERTEX
  8
Thick_Metal
  10
156
  20
-8
  0
SEQEND
  0
POLYLINE
  8
Thick_Metal
  70
1
  66
1
  0
VERTEX
  8
Thick_Metal
  10
2043.5
  20
80
  0
VERTEX
  8
Thick_Metal
  10
1955.5
  20
80
  0
VERTEX
  8
Thick_Metal
  10
1955.5
  20
-8
  0
VERTEX
  8
Thick_Metal
  10
2043.5
  20
-8
  0
VERTEX
  8
Thick_Metal
  10
2043.5
  20
80
  0
SEQEND
  0
POLYLINE
  8
Thick_Metal
  70
1
  66
1
  0
VERTEX
  8
Thick_Metal
  10
2043.5
  20
-264
  0
VERTEX
  8
Thick_Metal
  10
1955.5
  20
-264
  0
VERTEX
  8
Thick_Metal
  10
1955.5
  20
-352
  0
VERTEX
  8
Thick_Metal
  10
2043.5
  20
-352
  0
VERTEX
  8
Thick_Metal
  10
2043.5
  20
-264
  0
SEQEND
  0
POLYLINE
  8
Thick_Metal
  70
1
  66
1
  0
VERTEX
  8
Thick_Metal
  10
1567.5
  20
238
  0
VERTEX
  8
Thick_Metal
  10
1655.5
  20
238
  0
VERTEX
  8
Thick_Metal
  10
1655.5
  20
326
  0
VERTEX
  8
Thick_Metal
  10
1567.5
  20
326
  0
VERTEX
  8
Thick_Metal
  10
1567.5
  20
238
  0
SEQEND
  0
POLYLINE
  8
Thick_Metal
  70
1
  66
1
  0
VERTEX
  8
Thick_Metal
  10
1871.5
  20
238
  0
VERTEX
  8
Thick_Metal
  10
1959.5
  20
238
  0
VERTEX
  8
Thick_Metal
  10
1959.5
  20
326
  0
VERTEX
  8
Thick_Metal
  10
1871.5
  20
326
  0
VERTEX
  8
Thick_Metal
  10
1871.5
  20
238
  0
SEQEND
  0
POLYLINE
  8
Thick_Metal
  70
1
  66
1
  0
VERTEX
  8
Thick_Metal
  10
115
  20
-56
  0
VERTEX
  8
Thick_Metal
  10
167
  20
-56
  0
VERTEX
  8
Thick_Metal
  10
167
  20
62
  0
VERTEX
  8
Thick_Metal
  10
115
  20
62
  0
VERTEX
  8
Thick_Metal
  10
115
  20
-56
  0
SEQEND
  0
POLYLINE
  8
Thick_Metal
  70
1
  66
1
  0
VERTEX
  8
Thick_Metal
  10
2080.5
  20
-216
  0
VERTEX
  8
Thick_Metal
  10
2028.5
  20
-216
  0
VERTEX
  8
Thick_Metal
  10
2028.5
  20
-334
  0
VERTEX
  8
Thick_Metal
  10
2080.5
  20
-334
  0
VERTEX
  8
Thick_Metal
  10
2080.5
  20
-216
  0
SEQEND
  0
POLYLINE
  8
Thick_Metal
  70
1
  66
1
  0
VERTEX
  8
Thick_Metal
  10
115
  20
-334
  0
VERTEX
  8
Thick_Metal
  10
167
  20
-334
  0
VERTEX
  8
Thick_Metal
  10
167
  20
-216
  0
VERTEX
  8
Thick_Metal
  10
115
  20
-216
  0
VERTEX
  8
Thick_Metal
  10
115
  20
-334
  0
SEQEND
  0
POLYLINE
  8
Thick_Metal
  70
1
  66
1
  0
VERTEX
  8
Thick_Metal
  10
2080.5
  20
62
  0
VERTEX
  8
Thick_Metal
  10
2028.5
  20
62
  0
VERTEX
  8
Thick_Metal
  10
2028.5
  20
-56
  0
VERTEX
  8
Thick_Metal
  10
2080.5
  20
-56
  0
VERTEX
  8
Thick_Metal
  10
2080.5
  20
62
  0
SEQEND
  0
POLYLINE
  8
Thick_Metal
  70
1
  66
1
  0
VERTEX
  8
Thick_Metal
  10
116
  20
-333
  0
VERTEX
  8
Thick_Metal
  10
166
  20
-333
  0
VERTEX
  8
Thick_Metal
  10
166
  20
-217
  0
VERTEX
  8
Thick_Metal
  10
116
  20
-217
  0
VERTEX
  8
Thick_Metal
  10
116
  20
-333
  0
SEQEND
  0
POLYLINE
  8
Thick_Metal
  70
1
  66
1
  0
VERTEX
  8
Thick_Metal
  10
116
  20
-55
  0
VERTEX
  8
Thick_Metal
  10
166
  20
-55
  0
VERTEX
  8
Thick_Metal
  10
166
  20
61
  0
VERTEX
  8
Thick_Metal
  10
116
  20
61
  0
VERTEX
  8
Thick_Metal
  10
116
  20
-55
  0
SEQEND
  0
POLYLINE
  8
Thick_Metal
  70
1
  66
1
  0
VERTEX
  8
Thick_Metal
  10
2079.5
  20
-217
  0
VERTEX
  8
Thick_Metal
  10
2029.5
  20
-217
  0
VERTEX
  8
Thick_Metal
  10
2029.5
  20
-333
  0
VERTEX
  8
Thick_Metal
  10
2079.5
  20
-333
  0
VERTEX
  8
Thick_Metal
  10
2079.5
  20
-217
  0
SEQEND
  0
POLYLINE
  8
Thick_Metal
  70
1
  66
1
  0
VERTEX
  8
Thick_Metal
  10
2079.5
  20
61
  0
VERTEX
  8
Thick_Metal
  10
2029.5
  20
61
  0
VERTEX
  8
Thick_Metal
  10
2029.5
  20
-55
  0
VERTEX
  8
Thick_Metal
  10
2079.5
  20
-55
  0
VERTEX
  8
Thick_Metal
  10
2079.5
  20
61
  0
SEQEND
  0
POLYLINE
  8
Thick_Metal
  70
1
  66
1
  0
VERTEX
  8
Thick_Metal
  10
116
  20
-55
  0
VERTEX
  8
Thick_Metal
  10
166
  20
-55
  0
VERTEX
  8
Thick_Metal
  10
166
  20
61
  0
VERTEX
  8
Thick_Metal
  10
116
  20
61
  0
VERTEX
  8
Thick_Metal
  10
116
  20
-55
  0
SEQEND
  0
POLYLINE
  8
Thick_Metal
  70
1
  66
1
  0
VERTEX
  8
Thick_Metal
  10
116
  20
-333
  0
VERTEX
  8
Thick_Metal
  10
166
  20
-333
  0
VERTEX
  8
Thick_Metal
  10
166
  20
-217
  0
VERTEX
  8
Thick_Metal
  10
116
  20
-217
  0
VERTEX
  8
Thick_Metal
  10
116
  20
-333
  0
SEQEND
  0
POLYLINE
  8
Thick_Metal
  70
1
  66
1
  0
VERTEX
  8
Thick_Metal
  10
2079.5
  20
-217
  0
VERTEX
  8
Thick_Metal
  10
2029.5
  20
-217
  0
VERTEX
  8
Thick_Metal
  10
2029.5
  20
-333
  0
VERTEX
  8
Thick_Metal
  10
2079.5
  20
-333
  0
VERTEX
  8
Thick_Metal
  10
2079.5
  20
-217
  0
SEQEND
  0
POLYLINE
  8
Thick_Metal
  70
1
  66
1
  0
VERTEX
  8
Thick_Metal
  10
2079.5
  20
61
  0
VERTEX
  8
Thick_Metal
  10
2029.5
  20
61
  0
VERTEX
  8
Thick_Metal
  10
2029.5
  20
-55
  0
VERTEX
  8
Thick_Metal
  10
2079.5
  20
-55
  0
VERTEX
  8
Thick_Metal
  10
2079.5
  20
61
  0
SEQEND
  0
POLYLINE
  8
Thick_Metal
  70
1
  66
1
  0
VERTEX
  8
Thick_Metal
  10
117
  20
-54
  0
VERTEX
  8
Thick_Metal
  10
165
  20
-54
  0
VERTEX
  8
Thick_Metal
  10
165
  20
60
  0
VERTEX
  8
Thick_Metal
  10
117
  20
60
  0
VERTEX
  8
Thick_Metal
  10
117
  20
-54
  0
SEQEND
  0
POLYLINE
  8
Thick_Metal
  70
1
  66
1
  0
VERTEX
  8
Thick_Metal
  10
2078.5
  20
-218
  0
VERTEX
  8
Thick_Metal
  10
2030.5
  20
-218
  0
VERTEX
  8
Thick_Metal
  10
2030.5
  20
-332
  0
VERTEX
  8
Thick_Metal
  10
2078.5
  20
-332
  0
VERTEX
  8
Thick_Metal
  10
2078.5
  20
-218
  0
SEQEND
  0
POLYLINE
  8
Thick_Metal
  70
1
  66
1
  0
VERTEX
  8
Thick_Metal
  10
117
  20
-332
  0
VERTEX
  8
Thick_Metal
  10
165
  20
-332
  0
VERTEX
  8
Thick_Metal
  10
165
  20
-218
  0
VERTEX
  8
Thick_Metal
  10
117
  20
-218
  0
VERTEX
  8
Thick_Metal
  10
117
  20
-332
  0
SEQEND
  0
POLYLINE
  8
Thick_Metal
  70
1
  66
1
  0
VERTEX
  8
Thick_Metal
  10
2078.5
  20
60
  0
VERTEX
  8
Thick_Metal
  10
2030.5
  20
60
  0
VERTEX
  8
Thick_Metal
  10
2030.5
  20
-54
  0
VERTEX
  8
Thick_Metal
  10
2078.5
  20
-54
  0
VERTEX
  8
Thick_Metal
  10
2078.5
  20
60
  0
SEQEND
  0
POLYLINE
  8
Thick_Metal
  70
1
  66
1
  0
VERTEX
  8
Thick_Metal
  10
165
  20
231
  0
VERTEX
  8
Thick_Metal
  10
322
  20
231
  0
VERTEX
  8
Thick_Metal
  10
322
  20
233
  0
VERTEX
  8
Thick_Metal
  10
165
  20
233
  0
VERTEX
  8
Thick_Metal
  10
165
  20
231
  0
SEQEND
  0
POLYLINE
  8
Thick_Metal
  70
1
  66
1
  0
VERTEX
  8
Thick_Metal
  10
1894.5
  20
-154.5
  0
VERTEX
  8
Thick_Metal
  10
2005
  20
-154.5
  0
VERTEX
  8
Thick_Metal
  10
2005
  20
-117.5
  0
VERTEX
  8
Thick_Metal
  10
1894.5
  20
-117.5
  0
VERTEX
  8
Thick_Metal
  10
1894.5
  20
-154.5
  0
SEQEND
  0
POLYLINE
  8
Thick_Metal
  70
1
  66
1
  0
VERTEX
  8
Thick_Metal
  10
1538
  20
233
  0
VERTEX
  8
Thick_Metal
  10
1571.5
  20
233
  0
VERTEX
  8
Thick_Metal
  10
1571.5
  20
331
  0
VERTEX
  8
Thick_Metal
  10
1538
  20
331
  0
VERTEX
  8
Thick_Metal
  10
1538
  20
233
  0
SEQEND
  0
POLYLINE
  8
Thick_Metal
  70
1
  66
1
  0
VERTEX
  8
Thick_Metal
  10
1538
  20
233
  0
VERTEX
  8
Thick_Metal
  10
1571.5
  20
233
  0
VERTEX
  8
Thick_Metal
  10
1571.5
  20
331
  0
VERTEX
  8
Thick_Metal
  10
1538
  20
331
  0
VERTEX
  8
Thick_Metal
  10
1538
  20
233
  0
SEQEND
  0
POLYLINE
  8
Thick_Metal
  70
1
  66
1
  0
VERTEX
  8
Thick_Metal
  10
341.5
  20
233
  0
VERTEX
  8
Thick_Metal
  10
373.5
  20
233
  0
VERTEX
  8
Thick_Metal
  10
373.5
  20
331
  0
VERTEX
  8
Thick_Metal
  10
341.5
  20
331
  0
VERTEX
  8
Thick_Metal
  10
341.5
  20
233
  0
SEQEND
  0
POLYLINE
  8
Thick_Metal
  70
1
  66
1
  0
VERTEX
  8
Thick_Metal
  10
341.5
  20
233
  0
VERTEX
  8
Thick_Metal
  10
373.5
  20
233
  0
VERTEX
  8
Thick_Metal
  10
373.5
  20
331
  0
VERTEX
  8
Thick_Metal
  10
341.5
  20
331
  0
VERTEX
  8
Thick_Metal
  10
341.5
  20
233
  0
SEQEND
  0
POLYLINE
  8
Thick_Metal
  70
1
  66
1
  0
VERTEX
  8
Thick_Metal
  10
1539
  20
234
  0
VERTEX
  8
Thick_Metal
  10
1570.5
  20
234
  0
VERTEX
  8
Thick_Metal
  10
1570.5
  20
330
  0
VERTEX
  8
Thick_Metal
  10
1539
  20
330
  0
VERTEX
  8
Thick_Metal
  10
1539
  20
234
  0
SEQEND
  0
POLYLINE
  8
Thick_Metal
  70
1
  66
1
  0
VERTEX
  8
Thick_Metal
  10
198.5
  20
-154.5
  0
VERTEX
  8
Thick_Metal
  10
288.5
  20
-154.5
  0
VERTEX
  8
Thick_Metal
  10
288.5
  20
-117.5
  0
VERTEX
  8
Thick_Metal
  10
198.5
  20
-117.5
  0
VERTEX
  8
Thick_Metal
  10
198.5
  20
-154.5
  0
SEQEND
  0
POLYLINE
  8
Thick_Metal
  70
1
  66
1
  0
VERTEX
  8
Thick_Metal
  10
342.5
  20
234
  0
VERTEX
  8
Thick_Metal
  10
372.5
  20
234
  0
VERTEX
  8
Thick_Metal
  10
372.5
  20
330
  0
VERTEX
  8
Thick_Metal
  10
342.5
  20
330
  0
VERTEX
  8
Thick_Metal
  10
342.5
  20
234
  0
SEQEND
  0
POLYLINE
  8
Thick_Metal
  70
1
  66
1
  0
VERTEX
  8
Thick_Metal
  10
1906
  20
-154.5
  0
VERTEX
  8
Thick_Metal
  10
1995
  20
-154.5
  0
VERTEX
  8
Thick_Metal
  10
1995
  20
-117.5
  0
VERTEX
  8
Thick_Metal
  10
1906
  20
-117.5
  0
VERTEX
  8
Thick_Metal
  10
1906
  20
-154.5
  0
SEQEND
  0
POLYLINE
  8
Thick_Metal
  70
1
  66
1
  0
VERTEX
  8
Thick_Metal
  10
1907
  20
-153.5
  0
VERTEX
  8
Thick_Metal
  10
1994
  20
-153.5
  0
VERTEX
  8
Thick_Metal
  10
1994
  20
-118.5
  0
VERTEX
  8
Thick_Metal
  10
1907
  20
-118.5
  0
VERTEX
  8
Thick_Metal
  10
1907
  20
-153.5
  0
SEQEND
  0
POLYLINE
  8
Thick_Metal
  70
1
  66
1
  0
VERTEX
  8
Thick_Metal
  10
198.5
  20
-154.5
  0
VERTEX
  8
Thick_Metal
  10
276.5
  20
-154.5
  0
VERTEX
  8
Thick_Metal
  10
276.5
  20
-117.5
  0
VERTEX
  8
Thick_Metal
  10
198.5
  20
-117.5
  0
VERTEX
  8
Thick_Metal
  10
198.5
  20
-154.5
  0
SEQEND
  0
POLYLINE
  8
Thick_Metal
  70
1
  66
1
  0
VERTEX
  8
Thick_Metal
  10
198.5
  20
-153.5
  0
VERTEX
  8
Thick_Metal
  10
275.5
  20
-153.5
  0
VERTEX
  8
Thick_Metal
  10
275.5
  20
-118.5
  0
VERTEX
  8
Thick_Metal
  10
198.5
  20
-118.5
  0
VERTEX
  8
Thick_Metal
  10
198.5
  20
-153.5
  0
SEQEND
  0
POLYLINE
  8
Thick_Metal
  70
1
  66
1
  0
VERTEX
  8
Thick_Metal
  10
2080.5
  20
-10
  0
VERTEX
  8
Thick_Metal
  10
2028.5
  20
-10
  0
VERTEX
  8
Thick_Metal
  10
2028.5
  20
-62
  0
VERTEX
  8
Thick_Metal
  10
2080.5
  20
-62
  0
VERTEX
  8
Thick_Metal
  10
2080.5
  20
-10
  0
SEQEND
  0
POLYLINE
  8
Thick_Metal
  70
1
  66
1
  0
VERTEX
  8
Thick_Metal
  10
2080.5
  20
-110
  0
VERTEX
  8
Thick_Metal
  10
2028.5
  20
-110
  0
VERTEX
  8
Thick_Metal
  10
2028.5
  20
-162
  0
VERTEX
  8
Thick_Metal
  10
2080.5
  20
-162
  0
VERTEX
  8
Thick_Metal
  10
2080.5
  20
-110
  0
SEQEND
  0
POLYLINE
  8
Thick_Metal
  70
1
  66
1
  0
VERTEX
  8
Thick_Metal
  10
2080.5
  20
-210
  0
VERTEX
  8
Thick_Metal
  10
2028.5
  20
-210
  0
VERTEX
  8
Thick_Metal
  10
2028.5
  20
-262
  0
VERTEX
  8
Thick_Metal
  10
2080.5
  20
-262
  0
VERTEX
  8
Thick_Metal
  10
2080.5
  20
-210
  0
SEQEND
  0
POLYLINE
  8
Thick_Metal
  70
1
  66
1
  0
VERTEX
  8
Thick_Metal
  10
2038
  20
-10
  0
VERTEX
  8
Thick_Metal
  10
1986
  20
-10
  0
VERTEX
  8
Thick_Metal
  10
1986
  20
-62
  0
VERTEX
  8
Thick_Metal
  10
2038
  20
-62
  0
VERTEX
  8
Thick_Metal
  10
2038
  20
-10
  0
SEQEND
  0
POLYLINE
  8
Thick_Metal
  70
1
  66
1
  0
VERTEX
  8
Thick_Metal
  10
2038
  20
-110
  0
VERTEX
  8
Thick_Metal
  10
1986
  20
-110
  0
VERTEX
  8
Thick_Metal
  10
1986
  20
-162
  0
VERTEX
  8
Thick_Metal
  10
2038
  20
-162
  0
VERTEX
  8
Thick_Metal
  10
2038
  20
-110
  0
SEQEND
  0
POLYLINE
  8
Thick_Metal
  70
1
  66
1
  0
VERTEX
  8
Thick_Metal
  10
2038
  20
-210
  0
VERTEX
  8
Thick_Metal
  10
1986
  20
-210
  0
VERTEX
  8
Thick_Metal
  10
1986
  20
-262
  0
VERTEX
  8
Thick_Metal
  10
2038
  20
-262
  0
VERTEX
  8
Thick_Metal
  10
2038
  20
-210
  0
SEQEND
  0
POLYLINE
  8
Thick_Metal
  70
1
  66
1
  0
VERTEX
  8
Thick_Metal
  10
115
  20
-162
  0
VERTEX
  8
Thick_Metal
  10
167
  20
-162
  0
VERTEX
  8
Thick_Metal
  10
167
  20
-110
  0
VERTEX
  8
Thick_Metal
  10
115
  20
-110
  0
VERTEX
  8
Thick_Metal
  10
115
  20
-162
  0
SEQEND
  0
POLYLINE
  8
Thick_Metal
  70
1
  66
1
  0
VERTEX
  8
Thick_Metal
  10
157.5
  20
-162
  0
VERTEX
  8
Thick_Metal
  10
209.5
  20
-162
  0
VERTEX
  8
Thick_Metal
  10
209.5
  20
-110
  0
VERTEX
  8
Thick_Metal
  10
157.5
  20
-110
  0
VERTEX
  8
Thick_Metal
  10
157.5
  20
-162
  0
SEQEND
  0
POLYLINE
  8
Thick_Metal
  70
1
  66
1
  0
VERTEX
  8
Thick_Metal
  10
157.5
  20
-262
  0
VERTEX
  8
Thick_Metal
  10
209.5
  20
-262
  0
VERTEX
  8
Thick_Metal
  10
209.5
  20
-210
  0
VERTEX
  8
Thick_Metal
  10
157.5
  20
-210
  0
VERTEX
  8
Thick_Metal
  10
157.5
  20
-262
  0
SEQEND
  0
POLYLINE
  8
Thick_Metal
  70
1
  66
1
  0
VERTEX
  8
Thick_Metal
  10
115
  20
-262
  0
VERTEX
  8
Thick_Metal
  10
167
  20
-262
  0
VERTEX
  8
Thick_Metal
  10
167
  20
-210
  0
VERTEX
  8
Thick_Metal
  10
115
  20
-210
  0
VERTEX
  8
Thick_Metal
  10
115
  20
-262
  0
SEQEND
  0
POLYLINE
  8
Thick_Metal
  70
1
  66
1
  0
VERTEX
  8
Thick_Metal
  10
157.5
  20
-62
  0
VERTEX
  8
Thick_Metal
  10
209.5
  20
-62
  0
VERTEX
  8
Thick_Metal
  10
209.5
  20
-10
  0
VERTEX
  8
Thick_Metal
  10
157.5
  20
-10
  0
VERTEX
  8
Thick_Metal
  10
157.5
  20
-62
  0
SEQEND
  0
POLYLINE
  8
Thick_Metal
  70
1
  66
1
  0
VERTEX
  8
Thick_Metal
  10
115
  20
-62
  0
VERTEX
  8
Thick_Metal
  10
167
  20
-62
  0
VERTEX
  8
Thick_Metal
  10
167
  20
-10
  0
VERTEX
  8
Thick_Metal
  10
115
  20
-10
  0
VERTEX
  8
Thick_Metal
  10
115
  20
-62
  0
SEQEND
  0
POLYLINE
  8
Thick_Metal
  70
1
  66
1
  0
VERTEX
  8
Thick_Metal
  10
2037
  20
-111
  0
VERTEX
  8
Thick_Metal
  10
1987
  20
-111
  0
VERTEX
  8
Thick_Metal
  10
1987
  20
-161
  0
VERTEX
  8
Thick_Metal
  10
2037
  20
-161
  0
VERTEX
  8
Thick_Metal
  10
2037
  20
-111
  0
SEQEND
  0
POLYLINE
  8
Thick_Metal
  70
1
  66
1
  0
VERTEX
  8
Thick_Metal
  10
2037
  20
-211
  0
VERTEX
  8
Thick_Metal
  10
1987
  20
-211
  0
VERTEX
  8
Thick_Metal
  10
1987
  20
-261
  0
VERTEX
  8
Thick_Metal
  10
2037
  20
-261
  0
VERTEX
  8
Thick_Metal
  10
2037
  20
-211
  0
SEQEND
  0
POLYLINE
  8
Thick_Metal
  70
1
  66
1
  0
VERTEX
  8
Thick_Metal
  10
116
  20
-161
  0
VERTEX
  8
Thick_Metal
  10
166
  20
-161
  0
VERTEX
  8
Thick_Metal
  10
166
  20
-111
  0
VERTEX
  8
Thick_Metal
  10
116
  20
-111
  0
VERTEX
  8
Thick_Metal
  10
116
  20
-161
  0
SEQEND
  0
POLYLINE
  8
Thick_Metal
  70
1
  66
1
  0
VERTEX
  8
Thick_Metal
  10
158.5
  20
-61
  0
VERTEX
  8
Thick_Metal
  10
208.5
  20
-61
  0
VERTEX
  8
Thick_Metal
  10
208.5
  20
-11
  0
VERTEX
  8
Thick_Metal
  10
158.5
  20
-11
  0
VERTEX
  8
Thick_Metal
  10
158.5
  20
-61
  0
SEQEND
  0
POLYLINE
  8
Thick_Metal
  70
1
  66
1
  0
VERTEX
  8
Thick_Metal
  10
2037
  20
-11
  0
VERTEX
  8
Thick_Metal
  10
1987
  20
-11
  0
VERTEX
  8
Thick_Metal
  10
1987
  20
-61
  0
VERTEX
  8
Thick_Metal
  10
2037
  20
-61
  0
VERTEX
  8
Thick_Metal
  10
2037
  20
-11
  0
SEQEND
  0
POLYLINE
  8
Thick_Metal
  70
1
  66
1
  0
VERTEX
  8
Thick_Metal
  10
116
  20
-61
  0
VERTEX
  8
Thick_Metal
  10
166
  20
-61
  0
VERTEX
  8
Thick_Metal
  10
166
  20
-11
  0
VERTEX
  8
Thick_Metal
  10
116
  20
-11
  0
VERTEX
  8
Thick_Metal
  10
116
  20
-61
  0
SEQEND
  0
POLYLINE
  8
Thick_Metal
  70
1
  66
1
  0
VERTEX
  8
Thick_Metal
  10
2079.5
  20
-111
  0
VERTEX
  8
Thick_Metal
  10
2029.5
  20
-111
  0
VERTEX
  8
Thick_Metal
  10
2029.5
  20
-161
  0
VERTEX
  8
Thick_Metal
  10
2079.5
  20
-161
  0
VERTEX
  8
Thick_Metal
  10
2079.5
  20
-111
  0
SEQEND
  0
POLYLINE
  8
Thick_Metal
  70
1
  66
1
  0
VERTEX
  8
Thick_Metal
  10
2079.5
  20
-211
  0
VERTEX
  8
Thick_Metal
  10
2029.5
  20
-211
  0
VERTEX
  8
Thick_Metal
  10
2029.5
  20
-261
  0
VERTEX
  8
Thick_Metal
  10
2079.5
  20
-261
  0
VERTEX
  8
Thick_Metal
  10
2079.5
  20
-211
  0
SEQEND
  0
POLYLINE
  8
Thick_Metal
  70
1
  66
1
  0
VERTEX
  8
Thick_Metal
  10
2037
  20
-11
  0
VERTEX
  8
Thick_Metal
  10
1987
  20
-11
  0
VERTEX
  8
Thick_Metal
  10
1987
  20
-61
  0
VERTEX
  8
Thick_Metal
  10
2037
  20
-61
  0
VERTEX
  8
Thick_Metal
  10
2037
  20
-11
  0
SEQEND
  0
POLYLINE
  8
Thick_Metal
  70
1
  66
1
  0
VERTEX
  8
Thick_Metal
  10
158.5
  20
-261
  0
VERTEX
  8
Thick_Metal
  10
208.5
  20
-261
  0
VERTEX
  8
Thick_Metal
  10
208.5
  20
-211
  0
VERTEX
  8
Thick_Metal
  10
158.5
  20
-211
  0
VERTEX
  8
Thick_Metal
  10
158.5
  20
-261
  0
SEQEND
  0
POLYLINE
  8
Thick_Metal
  70
1
  66
1
  0
VERTEX
  8
Thick_Metal
  10
2079.5
  20
-111
  0
VERTEX
  8
Thick_Metal
  10
2029.5
  20
-111
  0
VERTEX
  8
Thick_Metal
  10
2029.5
  20
-161
  0
VERTEX
  8
Thick_Metal
  10
2079.5
  20
-161
  0
VERTEX
  8
Thick_Metal
  10
2079.5
  20
-111
  0
SEQEND
  0
POLYLINE
  8
Thick_Metal
  70
1
  66
1
  0
VERTEX
  8
Thick_Metal
  10
2037
  20
-211
  0
VERTEX
  8
Thick_Metal
  10
1987
  20
-211
  0
VERTEX
  8
Thick_Metal
  10
1987
  20
-261
  0
VERTEX
  8
Thick_Metal
  10
2037
  20
-261
  0
VERTEX
  8
Thick_Metal
  10
2037
  20
-211
  0
SEQEND
  0
POLYLINE
  8
Thick_Metal
  70
1
  66
1
  0
VERTEX
  8
Thick_Metal
  10
158.5
  20
-161
  0
VERTEX
  8
Thick_Metal
  10
208.5
  20
-161
  0
VERTEX
  8
Thick_Metal
  10
208.5
  20
-111
  0
VERTEX
  8
Thick_Metal
  10
158.5
  20
-111
  0
VERTEX
  8
Thick_Metal
  10
158.5
  20
-161
  0
SEQEND
  0
POLYLINE
  8
Thick_Metal
  70
1
  66
1
  0
VERTEX
  8
Thick_Metal
  10
158.5
  20
-61
  0
VERTEX
  8
Thick_Metal
  10
208.5
  20
-61
  0
VERTEX
  8
Thick_Metal
  10
208.5
  20
-11
  0
VERTEX
  8
Thick_Metal
  10
158.5
  20
-11
  0
VERTEX
  8
Thick_Metal
  10
158.5
  20
-61
  0
SEQEND
  0
POLYLINE
  8
Thick_Metal
  70
1
  66
1
  0
VERTEX
  8
Thick_Metal
  10
2079.5
  20
-11
  0
VERTEX
  8
Thick_Metal
  10
2029.5
  20
-11
  0
VERTEX
  8
Thick_Metal
  10
2029.5
  20
-61
  0
VERTEX
  8
Thick_Metal
  10
2079.5
  20
-61
  0
VERTEX
  8
Thick_Metal
  10
2079.5
  20
-11
  0
SEQEND
  0
POLYLINE
  8
Thick_Metal
  70
1
  66
1
  0
VERTEX
  8
Thick_Metal
  10
116
  20
-61
  0
VERTEX
  8
Thick_Metal
  10
166
  20
-61
  0
VERTEX
  8
Thick_Metal
  10
166
  20
-11
  0
VERTEX
  8
Thick_Metal
  10
116
  20
-11
  0
VERTEX
  8
Thick_Metal
  10
116
  20
-61
  0
SEQEND
  0
POLYLINE
  8
Thick_Metal
  70
1
  66
1
  0
VERTEX
  8
Thick_Metal
  10
2079.5
  20
-11
  0
VERTEX
  8
Thick_Metal
  10
2029.5
  20
-11
  0
VERTEX
  8
Thick_Metal
  10
2029.5
  20
-61
  0
VERTEX
  8
Thick_Metal
  10
2079.5
  20
-61
  0
VERTEX
  8
Thick_Metal
  10
2079.5
  20
-11
  0
SEQEND
  0
POLYLINE
  8
Thick_Metal
  70
1
  66
1
  0
VERTEX
  8
Thick_Metal
  10
2037
  20
-111
  0
VERTEX
  8
Thick_Metal
  10
1987
  20
-111
  0
VERTEX
  8
Thick_Metal
  10
1987
  20
-161
  0
VERTEX
  8
Thick_Metal
  10
2037
  20
-161
  0
VERTEX
  8
Thick_Metal
  10
2037
  20
-111
  0
SEQEND
  0
POLYLINE
  8
Thick_Metal
  70
1
  66
1
  0
VERTEX
  8
Thick_Metal
  10
158.5
  20
-261
  0
VERTEX
  8
Thick_Metal
  10
208.5
  20
-261
  0
VERTEX
  8
Thick_Metal
  10
208.5
  20
-211
  0
VERTEX
  8
Thick_Metal
  10
158.5
  20
-211
  0
VERTEX
  8
Thick_Metal
  10
158.5
  20
-261
  0
SEQEND
  0
POLYLINE
  8
Thick_Metal
  70
1
  66
1
  0
VERTEX
  8
Thick_Metal
  10
116
  20
-261
  0
VERTEX
  8
Thick_Metal
  10
166
  20
-261
  0
VERTEX
  8
Thick_Metal
  10
166
  20
-211
  0
VERTEX
  8
Thick_Metal
  10
116
  20
-211
  0
VERTEX
  8
Thick_Metal
  10
116
  20
-261
  0
SEQEND
  0
POLYLINE
  8
Thick_Metal
  70
1
  66
1
  0
VERTEX
  8
Thick_Metal
  10
158.5
  20
-161
  0
VERTEX
  8
Thick_Metal
  10
208.5
  20
-161
  0
VERTEX
  8
Thick_Metal
  10
208.5
  20
-111
  0
VERTEX
  8
Thick_Metal
  10
158.5
  20
-111
  0
VERTEX
  8
Thick_Metal
  10
158.5
  20
-161
  0
SEQEND
  0
POLYLINE
  8
Thick_Metal
  70
1
  66
1
  0
VERTEX
  8
Thick_Metal
  10
2079.5
  20
-211
  0
VERTEX
  8
Thick_Metal
  10
2029.5
  20
-211
  0
VERTEX
  8
Thick_Metal
  10
2029.5
  20
-261
  0
VERTEX
  8
Thick_Metal
  10
2079.5
  20
-261
  0
VERTEX
  8
Thick_Metal
  10
2079.5
  20
-211
  0
SEQEND
  0
POLYLINE
  8
Thick_Metal
  70
1
  66
1
  0
VERTEX
  8
Thick_Metal
  10
116
  20
-261
  0
VERTEX
  8
Thick_Metal
  10
166
  20
-261
  0
VERTEX
  8
Thick_Metal
  10
166
  20
-211
  0
VERTEX
  8
Thick_Metal
  10
116
  20
-211
  0
VERTEX
  8
Thick_Metal
  10
116
  20
-261
  0
SEQEND
  0
POLYLINE
  8
Thick_Metal
  70
1
  66
1
  0
VERTEX
  8
Thick_Metal
  10
116
  20
-161
  0
VERTEX
  8
Thick_Metal
  10
166
  20
-161
  0
VERTEX
  8
Thick_Metal
  10
166
  20
-111
  0
VERTEX
  8
Thick_Metal
  10
116
  20
-111
  0
VERTEX
  8
Thick_Metal
  10
116
  20
-161
  0
SEQEND
  0
POLYLINE
  8
Thick_Metal
  70
1
  66
1
  0
VERTEX
  8
Thick_Metal
  10
2030.5
  20
60
  0
VERTEX
  8
Thick_Metal
  10
2028.5
  20
60
  0
VERTEX
  8
Thick_Metal
  10
2028.5
  20
-36
  0
VERTEX
  8
Thick_Metal
  10
2030.5
  20
-36
  0
VERTEX
  8
Thick_Metal
  10
2030.5
  20
60
  0
SEQEND
  0
POLYLINE
  8
Thick_Metal
  70
1
  66
1
  0
VERTEX
  8
Thick_Metal
  10
165
  20
-332
  0
VERTEX
  8
Thick_Metal
  10
167
  20
-332
  0
VERTEX
  8
Thick_Metal
  10
167
  20
-236
  0
VERTEX
  8
Thick_Metal
  10
165
  20
-236
  0
VERTEX
  8
Thick_Metal
  10
165
  20
-332
  0
SEQEND
  0
POLYLINE
  8
Thick_Metal
  70
1
  66
1
  0
VERTEX
  8
Thick_Metal
  10
2030.5
  20
-236
  0
VERTEX
  8
Thick_Metal
  10
2028.5
  20
-236
  0
VERTEX
  8
Thick_Metal
  10
2028.5
  20
-332
  0
VERTEX
  8
Thick_Metal
  10
2030.5
  20
-332
  0
VERTEX
  8
Thick_Metal
  10
2030.5
  20
-236
  0
SEQEND
  0
POLYLINE
  8
Thick_Metal
  70
1
  66
1
  0
VERTEX
  8
Thick_Metal
  10
165
  20
-36
  0
VERTEX
  8
Thick_Metal
  10
167
  20
-36
  0
VERTEX
  8
Thick_Metal
  10
167
  20
60
  0
VERTEX
  8
Thick_Metal
  10
165
  20
60
  0
VERTEX
  8
Thick_Metal
  10
165
  20
-36
  0
SEQEND
  0
POLYLINE
  8
Thick_Metal
  70
1
  66
1
  0
VERTEX
  8
Thick_Metal
  10
2078.5
  20
-212
  0
VERTEX
  8
Thick_Metal
  10
2030.5
  20
-212
  0
VERTEX
  8
Thick_Metal
  10
2030.5
  20
-260
  0
VERTEX
  8
Thick_Metal
  10
2078.5
  20
-260
  0
VERTEX
  8
Thick_Metal
  10
2078.5
  20
-212
  0
SEQEND
  0
POLYLINE
  8
Thick_Metal
  70
1
  66
1
  0
VERTEX
  8
Thick_Metal
  10
2036
  20
-112
  0
VERTEX
  8
Thick_Metal
  10
1988
  20
-112
  0
VERTEX
  8
Thick_Metal
  10
1988
  20
-160
  0
VERTEX
  8
Thick_Metal
  10
2036
  20
-160
  0
VERTEX
  8
Thick_Metal
  10
2036
  20
-112
  0
SEQEND
  0
POLYLINE
  8
Thick_Metal
  70
1
  66
1
  0
VERTEX
  8
Thick_Metal
  10
117
  20
-160
  0
VERTEX
  8
Thick_Metal
  10
165
  20
-160
  0
VERTEX
  8
Thick_Metal
  10
165
  20
-112
  0
VERTEX
  8
Thick_Metal
  10
117
  20
-112
  0
VERTEX
  8
Thick_Metal
  10
117
  20
-160
  0
SEQEND
  0
POLYLINE
  8
Thick_Metal
  70
1
  66
1
  0
VERTEX
  8
Thick_Metal
  10
159.5
  20
-260
  0
VERTEX
  8
Thick_Metal
  10
207.5
  20
-260
  0
VERTEX
  8
Thick_Metal
  10
207.5
  20
-212
  0
VERTEX
  8
Thick_Metal
  10
159.5
  20
-212
  0
VERTEX
  8
Thick_Metal
  10
159.5
  20
-260
  0
SEQEND
  0
POLYLINE
  8
Thick_Metal
  70
1
  66
1
  0
VERTEX
  8
Thick_Metal
  10
159.5
  20
-60
  0
VERTEX
  8
Thick_Metal
  10
207.5
  20
-60
  0
VERTEX
  8
Thick_Metal
  10
207.5
  20
-12
  0
VERTEX
  8
Thick_Metal
  10
159.5
  20
-12
  0
VERTEX
  8
Thick_Metal
  10
159.5
  20
-60
  0
SEQEND
  0
POLYLINE
  8
Thick_Metal
  70
1
  66
1
  0
VERTEX
  8
Thick_Metal
  10
2078.5
  20
-112
  0
VERTEX
  8
Thick_Metal
  10
2030.5
  20
-112
  0
VERTEX
  8
Thick_Metal
  10
2030.5
  20
-160
  0
VERTEX
  8
Thick_Metal
  10
2078.5
  20
-160
  0
VERTEX
  8
Thick_Metal
  10
2078.5
  20
-112
  0
SEQEND
  0
POLYLINE
  8
Thick_Metal
  70
1
  66
1
  0
VERTEX
  8
Thick_Metal
  10
2036
  20
-12
  0
VERTEX
  8
Thick_Metal
  10
1988
  20
-12
  0
VERTEX
  8
Thick_Metal
  10
1988
  20
-60
  0
VERTEX
  8
Thick_Metal
  10
2036
  20
-60
  0
VERTEX
  8
Thick_Metal
  10
2036
  20
-12
  0
SEQEND
  0
POLYLINE
  8
Thick_Metal
  70
1
  66
1
  0
VERTEX
  8
Thick_Metal
  10
2036
  20
-212
  0
VERTEX
  8
Thick_Metal
  10
1988
  20
-212
  0
VERTEX
  8
Thick_Metal
  10
1988
  20
-260
  0
VERTEX
  8
Thick_Metal
  10
2036
  20
-260
  0
VERTEX
  8
Thick_Metal
  10
2036
  20
-212
  0
SEQEND
  0
POLYLINE
  8
Thick_Metal
  70
1
  66
1
  0
VERTEX
  8
Thick_Metal
  10
117
  20
-260
  0
VERTEX
  8
Thick_Metal
  10
165
  20
-260
  0
VERTEX
  8
Thick_Metal
  10
165
  20
-212
  0
VERTEX
  8
Thick_Metal
  10
117
  20
-212
  0
VERTEX
  8
Thick_Metal
  10
117
  20
-260
  0
SEQEND
  0
POLYLINE
  8
Thick_Metal
  70
1
  66
1
  0
VERTEX
  8
Thick_Metal
  10
117
  20
-60
  0
VERTEX
  8
Thick_Metal
  10
165
  20
-60
  0
VERTEX
  8
Thick_Metal
  10
165
  20
-12
  0
VERTEX
  8
Thick_Metal
  10
117
  20
-12
  0
VERTEX
  8
Thick_Metal
  10
117
  20
-60
  0
SEQEND
  0
POLYLINE
  8
Thick_Metal
  70
1
  66
1
  0
VERTEX
  8
Thick_Metal
  10
159.5
  20
-160
  0
VERTEX
  8
Thick_Metal
  10
207.5
  20
-160
  0
VERTEX
  8
Thick_Metal
  10
207.5
  20
-112
  0
VERTEX
  8
Thick_Metal
  10
159.5
  20
-112
  0
VERTEX
  8
Thick_Metal
  10
159.5
  20
-160
  0
SEQEND
  0
POLYLINE
  8
Thick_Metal
  70
1
  66
1
  0
VERTEX
  8
Thick_Metal
  10
2078.5
  20
-12
  0
VERTEX
  8
Thick_Metal
  10
2030.5
  20
-12
  0
VERTEX
  8
Thick_Metal
  10
2030.5
  20
-60
  0
VERTEX
  8
Thick_Metal
  10
2078.5
  20
-60
  0
VERTEX
  8
Thick_Metal
  10
2078.5
  20
-12
  0
SEQEND
  0
POLYLINE
  8
Thick_Metal
  70
1
  66
1
  0
VERTEX
  8
Thick_Metal
  10
936
  20
246
  0
VERTEX
  8
Thick_Metal
  10
1020.5
  20
246
  0
VERTEX
  8
Thick_Metal
  10
1020.5
  20
256
  0
VERTEX
  8
Thick_Metal
  10
936
  20
256
  0
VERTEX
  8
Thick_Metal
  10
936
  20
246
  0
SEQEND
  0
POLYLINE
  8
Thick_Metal
  70
1
  66
1
  0
VERTEX
  8
Thick_Metal
  10
1087.5
  20
246
  0
VERTEX
  8
Thick_Metal
  10
1172
  20
246
  0
VERTEX
  8
Thick_Metal
  10
1172
  20
256
  0
VERTEX
  8
Thick_Metal
  10
1087.5
  20
256
  0
VERTEX
  8
Thick_Metal
  10
1087.5
  20
246
  0
SEQEND
  0
POLYLINE
  8
Thick_Metal
  70
1
  66
1
  0
VERTEX
  8
Thick_Metal
  10
1660.5
  20
244
  0
VERTEX
  8
Thick_Metal
  10
1662.5
  20
244
  0
VERTEX
  8
Thick_Metal
  10
1662.5
  20
328
  0
VERTEX
  8
Thick_Metal
  10
1660.5
  20
328
  0
VERTEX
  8
Thick_Metal
  10
1660.5
  20
244
  0
SEQEND
  0
POLYLINE
  8
Thick_Metal
  70
1
  66
1
  0
VERTEX
  8
Thick_Metal
  10
2004
  20
149.5
  0
VERTEX
  8
Thick_Metal
  10
1997.6
  20
149.5
  0
VERTEX
  8
Thick_Metal
  10
1997.6
  20
117.5
  0
VERTEX
  8
Thick_Metal
  10
1996
  20
115.9
  0
VERTEX
  8
Thick_Metal
  10
1980
  20
115.9
  0
VERTEX
  8
Thick_Metal
  10
1978.4
  20
117.5
  0
VERTEX
  8
Thick_Metal
  10
1978.4
  20
149.5
  0
VERTEX
  8
Thick_Metal
  10
1972
  20
149.5
  0
VERTEX
  8
Thick_Metal
  10
1972
  20
114.3
  0
VERTEX
  8
Thick_Metal
  10
1976.8
  20
109.5
  0
VERTEX
  8
Thick_Metal
  10
1999.2
  20
109.5
  0
VERTEX
  8
Thick_Metal
  10
2004
  20
114.3
  0
VERTEX
  8
Thick_Metal
  10
2004
  20
149.5
  0
SEQEND
  0
POLYLINE
  8
Thick_Metal
  70
1
  66
1
  0
VERTEX
  8
Thick_Metal
  10
2031.2
  20
143.1
  0
VERTEX
  8
Thick_Metal
  10
2044
  20
143.1
  0
VERTEX
  8
Thick_Metal
  10
2044
  20
149.5
  0
VERTEX
  8
Thick_Metal
  10
2012
  20
149.5
  0
VERTEX
  8
Thick_Metal
  10
2012
  20
143.1
  0
VERTEX
  8
Thick_Metal
  10
2024.8
  20
143.1
  0
VERTEX
  8
Thick_Metal
  10
2024.8
  20
109.5
  0
VERTEX
  8
Thick_Metal
  10
2031.2
  20
109.5
  0
VERTEX
  8
Thick_Metal
  10
2031.2
  20
143.1
  0
SEQEND
  0
POLYLINE
  8
Thick_Metal
  70
1
  66
1
  0
VERTEX
  8
Thick_Metal
  10
332.5
  20
-305.5
  0
VERTEX
  8
Thick_Metal
  10
326.1
  20
-305.5
  0
VERTEX
  8
Thick_Metal
  10
326.1
  20
-331.9
  0
VERTEX
  8
Thick_Metal
  10
304.5
  20
-305.5
  0
VERTEX
  8
Thick_Metal
  10
300.5
  20
-305.5
  0
VERTEX
  8
Thick_Metal
  10
300.5
  20
-345.5
  0
VERTEX
  8
Thick_Metal
  10
306.9
  20
-345.5
  0
VERTEX
  8
Thick_Metal
  10
306.9
  20
-319.1
  0
VERTEX
  8
Thick_Metal
  10
328.5
  20
-345.5
  0
VERTEX
  8
Thick_Metal
  10
332.5
  20
-345.5
  0
VERTEX
  8
Thick_Metal
  10
332.5
  20
-305.5
  0
SEQEND
  0
POLYLINE
  8
Thick_Metal
  70
1
  66
1
  0
VERTEX
  8
Thick_Metal
  10
686
  20
-291
  0
VERTEX
  8
Thick_Metal
  10
679.6
  20
-291
  0
VERTEX
  8
Thick_Metal
  10
679.6
  20
-319
  0
VERTEX
  8
Thick_Metal
  10
660.4
  20
-291
  0
VERTEX
  8
Thick_Metal
  10
654
  20
-291
  0
VERTEX
  8
Thick_Metal
  10
654
  20
-331
  0
VERTEX
  8
Thick_Metal
  10
660.4
  20
-331
  0
VERTEX
  8
Thick_Metal
  10
660.4
  20
-303
  0
VERTEX
  8
Thick_Metal
  10
679.6
  20
-331
  0
VERTEX
  8
Thick_Metal
  10
686
  20
-331
  0
VERTEX
  8
Thick_Metal
  10
686
  20
-291
  0
SEQEND
  0
POLYLINE
  8
Thick_Metal
  70
1
  66
1
  0
VERTEX
  8
Thick_Metal
  10
726
  20
-307.8
  0
VERTEX
  8
Thick_Metal
  10
716.4
  20
-307.8
  0
VERTEX
  8
Thick_Metal
  10
716.4
  20
-291
  0
VERTEX
  8
Thick_Metal
  10
710
  20
-291
  0
VERTEX
  8
Thick_Metal
  10
710
  20
-307.8
  0
VERTEX
  8
Thick_Metal
  10
700.4
  20
-307.8
  0
VERTEX
  8
Thick_Metal
  10
700.4
  20
-291
  0
VERTEX
  8
Thick_Metal
  10
694
  20
-291
  0
VERTEX
  8
Thick_Metal
  10
694
  20
-314.2
  0
VERTEX
  8
Thick_Metal
  10
710
  20
-314.2
  0
VERTEX
  8
Thick_Metal
  10
710
  20
-331
  0
VERTEX
  8
Thick_Metal
  10
716.4
  20
-331
  0
VERTEX
  8
Thick_Metal
  10
716.4
  20
-314.2
  0
VERTEX
  8
Thick_Metal
  10
726
  20
-314.2
  0
VERTEX
  8
Thick_Metal
  10
726
  20
-307.8
  0
SEQEND
  0
POLYLINE
  8
Thick_Metal
  70
1
  66
1
  0
VERTEX
  8
Thick_Metal
  10
651
  20
-341
  0
VERTEX
  8
Thick_Metal
  10
644.6
  20
-341
  0
VERTEX
  8
Thick_Metal
  10
644.6
  20
-357.8
  0
VERTEX
  8
Thick_Metal
  10
625.4
  20
-357.8
  0
VERTEX
  8
Thick_Metal
  10
625.4
  20
-341
  0
VERTEX
  8
Thick_Metal
  10
619
  20
-341
  0
VERTEX
  8
Thick_Metal
  10
619
  20
-381
  0
VERTEX
  8
Thick_Metal
  10
625.4
  20
-381
  0
VERTEX
  8
Thick_Metal
  10
625.4
  20
-364.2
  0
VERTEX
  8
Thick_Metal
  10
644.6
  20
-364.2
  0
VERTEX
  8
Thick_Metal
  10
644.6
  20
-381
  0
VERTEX
  8
Thick_Metal
  10
651
  20
-381
  0
VERTEX
  8
Thick_Metal
  10
651
  20
-341
  0
SEQEND
  0
POLYLINE
  8
Thick_Metal
  70
1
  66
1
  0
VERTEX
  8
Thick_Metal
  10
731
  20
-374.6
  0
VERTEX
  8
Thick_Metal
  10
705.4
  20
-374.6
  0
VERTEX
  8
Thick_Metal
  10
705.4
  20
-341
  0
VERTEX
  8
Thick_Metal
  10
699
  20
-341
  0
VERTEX
  8
Thick_Metal
  10
699
  20
-381
  0
VERTEX
  8
Thick_Metal
  10
731
  20
-381
  0
VERTEX
  8
Thick_Metal
  10
731
  20
-374.6
  0
SEQEND
  0
POLYLINE
  8
Thick_Metal
  70
1
  66
1
  0
VERTEX
  8
Thick_Metal
  10
899
  20
-376.2
  0
VERTEX
  8
Thick_Metal
  10
903.8
  20
-381
  0
VERTEX
  8
Thick_Metal
  10
913.4
  20
-381
  0
VERTEX
  8
Thick_Metal
  10
913.4
  20
-374.6
  0
VERTEX
  8
Thick_Metal
  10
907
  20
-374.6
  0
VERTEX
  8
Thick_Metal
  10
905.4
  20
-373
  0
VERTEX
  8
Thick_Metal
  10
905.4
  20
-365.8
  0
VERTEX
  8
Thick_Metal
  10
907
  20
-364.2
  0
VERTEX
  8
Thick_Metal
  10
913.4
  20
-364.2
  0
VERTEX
  8
Thick_Metal
  10
913.4
  20
-357.8
  0
VERTEX
  8
Thick_Metal
  10
907
  20
-357.8
  0
VERTEX
  8
Thick_Metal
  10
905.4
  20
-356.2
  0
VERTEX
  8
Thick_Metal
  10
905.4
  20
-349
  0
VERTEX
  8
Thick_Metal
  10
907
  20
-347.4
  0
VERTEX
  8
Thick_Metal
  10
923
  20
-347.4
  0
VERTEX
  8
Thick_Metal
  10
926.2
  20
-350.6
  0
VERTEX
  8
Thick_Metal
  10
931
  20
-350.6
  0
VERTEX
  8
Thick_Metal
  10
931
  20
-345.8
  0
VERTEX
  8
Thick_Metal
  10
926.2
  20
-341
  0
VERTEX
  8
Thick_Metal
  10
903.8
  20
-341
  0
VERTEX
  8
Thick_Metal
  10
899
  20
-345.8
  0
VERTEX
  8
Thick_Metal
  10
899
  20
-376.2
  0
SEQEND
  0
POLYLINE
  8
Thick_Metal
  70
1
  66
1
  0
VERTEX
  8
Thick_Metal
  10
811
  20
-374.6
  0
VERTEX
  8
Thick_Metal
  10
785.4
  20
-374.6
  0
VERTEX
  8
Thick_Metal
  10
796.07
  20
-366.6
  0
VERTEX
  8
Thick_Metal
  10
811
  20
-355.4
  0
VERTEX
  8
Thick_Metal
  10
811
  20
-345.8
  0
VERTEX
  8
Thick_Metal
  10
806.2
  20
-341
  0
VERTEX
  8
Thick_Metal
  10
783.8
  20
-341
  0
VERTEX
  8
Thick_Metal
  10
779
  20
-345.8
  0
VERTEX
  8
Thick_Metal
  10
779
  20
-353
  0
VERTEX
  8
Thick_Metal
  10
785.4
  20
-353
  0
VERTEX
  8
Thick_Metal
  10
785.4
  20
-349
  0
VERTEX
  8
Thick_Metal
  10
787
  20
-347.4
  0
VERTEX
  8
Thick_Metal
  10
803
  20
-347.4
  0
VERTEX
  8
Thick_Metal
  10
804.6
  20
-349
  0
VERTEX
  8
Thick_Metal
  10
804.6
  20
-352.2
  0
VERTEX
  8
Thick_Metal
  10
779
  20
-371.4
  0
VERTEX
  8
Thick_Metal
  10
779
  20
-381
  0
VERTEX
  8
Thick_Metal
  10
811
  20
-381
  0
VERTEX
  8
Thick_Metal
  10
811
  20
-374.6
  0
SEQEND
  0
POLYLINE
  8
Thick_Metal
  70
1
  66
1
  0
VERTEX
  8
Thick_Metal
  10
646
  20
-324.6
  0
VERTEX
  8
Thick_Metal
  10
620.4
  20
-324.6
  0
VERTEX
  8
Thick_Metal
  10
620.4
  20
-291
  0
VERTEX
  8
Thick_Metal
  10
614
  20
-291
  0
VERTEX
  8
Thick_Metal
  10
614
  20
-331
  0
VERTEX
  8
Thick_Metal
  10
646
  20
-331
  0
VERTEX
  8
Thick_Metal
  10
646
  20
-324.6
  0
SEQEND
  0
POLYLINE
  8
Thick_Metal
  70
1
  66
1
  0
VERTEX
  8
Thick_Metal
  10
685.8
  20
-376.6
  0
VERTEX
  8
Thick_Metal
  10
673.4
  20
-364.2
  0
VERTEX
  8
Thick_Metal
  10
673.4
  20
-357.8
  0
VERTEX
  8
Thick_Metal
  10
665.4
  20
-357.8
  0
VERTEX
  8
Thick_Metal
  10
665.4
  20
-347.4
  0
VERTEX
  8
Thick_Metal
  10
673.4
  20
-347.4
  0
VERTEX
  8
Thick_Metal
  10
673.4
  20
-341
  0
VERTEX
  8
Thick_Metal
  10
659
  20
-341
  0
VERTEX
  8
Thick_Metal
  10
659
  20
-381
  0
VERTEX
  8
Thick_Metal
  10
665.4
  20
-381
  0
VERTEX
  8
Thick_Metal
  10
665.4
  20
-365.8
  0
VERTEX
  8
Thick_Metal
  10
680.6
  20
-381
  0
VERTEX
  8
Thick_Metal
  10
685.8
  20
-376.6
  0
SEQEND
  0
POLYLINE
  8
Thick_Metal
  70
1
  66
1
  0
VERTEX
  8
Thick_Metal
  10
292.5
  20
-339.1
  0
VERTEX
  8
Thick_Metal
  10
283.7
  20
-339.1
  0
VERTEX
  8
Thick_Metal
  10
283.7
  20
-311.9
  0
VERTEX
  8
Thick_Metal
  10
292.5
  20
-311.9
  0
VERTEX
  8
Thick_Metal
  10
292.5
  20
-305.5
  0
VERTEX
  8
Thick_Metal
  10
268.5
  20
-305.5
  0
VERTEX
  8
Thick_Metal
  10
268.5
  20
-311.9
  0
VERTEX
  8
Thick_Metal
  10
277.3
  20
-311.9
  0
VERTEX
  8
Thick_Metal
  10
277.3
  20
-339.1
  0
VERTEX
  8
Thick_Metal
  10
268.5
  20
-339.1
  0
VERTEX
  8
Thick_Metal
  10
268.5
  20
-345.5
  0
VERTEX
  8
Thick_Metal
  10
292.5
  20
-345.5
  0
VERTEX
  8
Thick_Metal
  10
292.5
  20
-339.1
  0
SEQEND
  0
POLYLINE
  8
Thick_Metal
  70
1
  66
1
  0
VERTEX
  8
Thick_Metal
  10
798
  20
-324.6
  0
VERTEX
  8
Thick_Metal
  10
789.2
  20
-324.6
  0
VERTEX
  8
Thick_Metal
  10
789.2
  20
-291
  0
VERTEX
  8
Thick_Metal
  10
780.4
  20
-291
  0
VERTEX
  8
Thick_Metal
  10
780.4
  20
-297.4
  0
VERTEX
  8
Thick_Metal
  10
782.8
  20
-297.4
  0
VERTEX
  8
Thick_Metal
  10
782.8
  20
-324.6
  0
VERTEX
  8
Thick_Metal
  10
774
  20
-324.6
  0
VERTEX
  8
Thick_Metal
  10
774
  20
-331
  0
VERTEX
  8
Thick_Metal
  10
798
  20
-331
  0
VERTEX
  8
Thick_Metal
  10
798
  20
-324.6
  0
SEQEND
  0
POLYLINE
  8
Thick_Metal
  70
1
  66
1
  0
VERTEX
  8
Thick_Metal
  10
830
  20
-324.6
  0
VERTEX
  8
Thick_Metal
  10
821.2
  20
-324.6
  0
VERTEX
  8
Thick_Metal
  10
821.2
  20
-291
  0
VERTEX
  8
Thick_Metal
  10
812.4
  20
-291
  0
VERTEX
  8
Thick_Metal
  10
812.4
  20
-297.4
  0
VERTEX
  8
Thick_Metal
  10
814.8
  20
-297.4
  0
VERTEX
  8
Thick_Metal
  10
814.8
  20
-324.6
  0
VERTEX
  8
Thick_Metal
  10
806
  20
-324.6
  0
VERTEX
  8
Thick_Metal
  10
806
  20
-331
  0
VERTEX
  8
Thick_Metal
  10
830
  20
-331
  0
VERTEX
  8
Thick_Metal
  10
830
  20
-324.6
  0
SEQEND
  0
POLYLINE
  8
Thick_Metal
  70
1
  66
1
  0
VERTEX
  8
Thick_Metal
  10
1946.4
  20
115.9
  0
VERTEX
  8
Thick_Metal
  10
1943.2
  20
115.9
  0
VERTEX
  8
Thick_Metal
  10
1938.4
  20
120.7
  0
VERTEX
  8
Thick_Metal
  10
1938.4
  20
138.3
  0
VERTEX
  8
Thick_Metal
  10
1943.2
  20
143.1
  0
VERTEX
  8
Thick_Metal
  10
1946.4
  20
143.1
  0
VERTEX
  8
Thick_Metal
  10
1946.4
  20
149.5
  0
VERTEX
  8
Thick_Metal
  10
1940.8
  20
149.5
  0
VERTEX
  8
Thick_Metal
  10
1932
  20
140.7
  0
VERTEX
  8
Thick_Metal
  10
1932
  20
118.3
  0
VERTEX
  8
Thick_Metal
  10
1940.8
  20
109.5
  0
VERTEX
  8
Thick_Metal
  10
1946.4
  20
109.5
  0
VERTEX
  8
Thick_Metal
  10
1946.4
  20
115.9
  0
SEQEND
  0
POLYLINE
  8
Thick_Metal
  70
1
  66
1
  0
VERTEX
  8
Thick_Metal
  10
1964
  20
140.7
  0
VERTEX
  8
Thick_Metal
  10
1955.2
  20
149.5
  0
VERTEX
  8
Thick_Metal
  10
1949.6
  20
149.5
  0
VERTEX
  8
Thick_Metal
  10
1949.6
  20
143.1
  0
VERTEX
  8
Thick_Metal
  10
1952.8
  20
143.1
  0
VERTEX
  8
Thick_Metal
  10
1957.6
  20
138.3
  0
VERTEX
  8
Thick_Metal
  10
1957.6
  20
120.7
  0
VERTEX
  8
Thick_Metal
  10
1952.8
  20
115.9
  0
VERTEX
  8
Thick_Metal
  10
1949.6
  20
115.9
  0
VERTEX
  8
Thick_Metal
  10
1949.6
  20
109.5
  0
VERTEX
  8
Thick_Metal
  10
1955.2
  20
109.5
  0
VERTEX
  8
Thick_Metal
  10
1964
  20
118.3
  0
VERTEX
  8
Thick_Metal
  10
1964
  20
140.7
  0
SEQEND
  0
POLYLINE
  8
Thick_Metal
  70
1
  66
1
  0
VERTEX
  8
Thick_Metal
  10
852.4
  20
-324.6
  0
VERTEX
  8
Thick_Metal
  10
846
  20
-324.6
  0
VERTEX
  8
Thick_Metal
  10
844.4
  20
-323
  0
VERTEX
  8
Thick_Metal
  10
844.4
  20
-299
  0
VERTEX
  8
Thick_Metal
  10
846
  20
-297.4
  0
VERTEX
  8
Thick_Metal
  10
852.4
  20
-297.4
  0
VERTEX
  8
Thick_Metal
  10
852.4
  20
-291
  0
VERTEX
  8
Thick_Metal
  10
842.8
  20
-291
  0
VERTEX
  8
Thick_Metal
  10
838
  20
-295.8
  0
VERTEX
  8
Thick_Metal
  10
838
  20
-326.2
  0
VERTEX
  8
Thick_Metal
  10
842.8
  20
-331
  0
VERTEX
  8
Thick_Metal
  10
852.4
  20
-331
  0
VERTEX
  8
Thick_Metal
  10
852.4
  20
-324.6
  0
SEQEND
  0
POLYLINE
  8
Thick_Metal
  70
1
  66
1
  0
VERTEX
  8
Thick_Metal
  10
870
  20
-295.8
  0
VERTEX
  8
Thick_Metal
  10
864.4
  20
-291
  0
VERTEX
  8
Thick_Metal
  10
855.6
  20
-291
  0
VERTEX
  8
Thick_Metal
  10
855.6
  20
-297.4
  0
VERTEX
  8
Thick_Metal
  10
862
  20
-297.4
  0
VERTEX
  8
Thick_Metal
  10
863.6
  20
-299
  0
VERTEX
  8
Thick_Metal
  10
863.6
  20
-323
  0
VERTEX
  8
Thick_Metal
  10
862
  20
-324.6
  0
VERTEX
  8
Thick_Metal
  10
855.6
  20
-324.6
  0
VERTEX
  8
Thick_Metal
  10
855.6
  20
-331
  0
VERTEX
  8
Thick_Metal
  10
865.2
  20
-331
  0
VERTEX
  8
Thick_Metal
  10
870
  20
-326.2
  0
VERTEX
  8
Thick_Metal
  10
870
  20
-295.8
  0
SEQEND
  0
POLYLINE
  8
Thick_Metal
  70
1
  66
1
  0
VERTEX
  8
Thick_Metal
  10
891
  20
-345.8
  0
VERTEX
  8
Thick_Metal
  10
885.4
  20
-341
  0
VERTEX
  8
Thick_Metal
  10
876.6
  20
-341
  0
VERTEX
  8
Thick_Metal
  10
876.6
  20
-347.4
  0
VERTEX
  8
Thick_Metal
  10
883
  20
-347.4
  0
VERTEX
  8
Thick_Metal
  10
884.6
  20
-349
  0
VERTEX
  8
Thick_Metal
  10
884.6
  20
-373
  0
VERTEX
  8
Thick_Metal
  10
883
  20
-374.6
  0
VERTEX
  8
Thick_Metal
  10
876.6
  20
-374.6
  0
VERTEX
  8
Thick_Metal
  10
876.6
  20
-381
  0
VERTEX
  8
Thick_Metal
  10
886.2
  20
-381
  0
VERTEX
  8
Thick_Metal
  10
891
  20
-376.2
  0
VERTEX
  8
Thick_Metal
  10
891
  20
-345.8
  0
SEQEND
  0
POLYLINE
  8
Thick_Metal
  70
1
  66
1
  0
VERTEX
  8
Thick_Metal
  10
873.4
  20
-374.6
  0
VERTEX
  8
Thick_Metal
  10
867
  20
-374.6
  0
VERTEX
  8
Thick_Metal
  10
865.4
  20
-373
  0
VERTEX
  8
Thick_Metal
  10
865.4
  20
-349
  0
VERTEX
  8
Thick_Metal
  10
867
  20
-347.4
  0
VERTEX
  8
Thick_Metal
  10
873.4
  20
-347.4
  0
VERTEX
  8
Thick_Metal
  10
873.4
  20
-341
  0
VERTEX
  8
Thick_Metal
  10
863.8
  20
-341
  0
VERTEX
  8
Thick_Metal
  10
859
  20
-345.8
  0
VERTEX
  8
Thick_Metal
  10
859
  20
-376.2
  0
VERTEX
  8
Thick_Metal
  10
863.8
  20
-381
  0
VERTEX
  8
Thick_Metal
  10
873.4
  20
-381
  0
VERTEX
  8
Thick_Metal
  10
873.4
  20
-374.6
  0
SEQEND
  0
POLYLINE
  8
Thick_Metal
  70
1
  66
1
  0
VERTEX
  8
Thick_Metal
  10
833.4
  20
-374.6
  0
VERTEX
  8
Thick_Metal
  10
827
  20
-374.6
  0
VERTEX
  8
Thick_Metal
  10
825.4
  20
-373
  0
VERTEX
  8
Thick_Metal
  10
825.4
  20
-349
  0
VERTEX
  8
Thick_Metal
  10
827
  20
-347.4
  0
VERTEX
  8
Thick_Metal
  10
833.4
  20
-347.4
  0
VERTEX
  8
Thick_Metal
  10
833.4
  20
-341
  0
VERTEX
  8
Thick_Metal
  10
823.8
  20
-341
  0
VERTEX
  8
Thick_Metal
  10
819
  20
-345.8
  0
VERTEX
  8
Thick_Metal
  10
819
  20
-376.2
  0
VERTEX
  8
Thick_Metal
  10
823.8
  20
-381
  0
VERTEX
  8
Thick_Metal
  10
833.4
  20
-381
  0
VERTEX
  8
Thick_Metal
  10
833.4
  20
-374.6
  0
SEQEND
  0
POLYLINE
  8
Thick_Metal
  70
1
  66
1
  0
VERTEX
  8
Thick_Metal
  10
851
  20
-345.8
  0
VERTEX
  8
Thick_Metal
  10
845.4
  20
-341
  0
VERTEX
  8
Thick_Metal
  10
836.6
  20
-341
  0
VERTEX
  8
Thick_Metal
  10
836.6
  20
-347.4
  0
VERTEX
  8
Thick_Metal
  10
843
  20
-347.4
  0
VERTEX
  8
Thick_Metal
  10
844.6
  20
-349
  0
VERTEX
  8
Thick_Metal
  10
844.6
  20
-373
  0
VERTEX
  8
Thick_Metal
  10
843
  20
-374.6
  0
VERTEX
  8
Thick_Metal
  10
836.6
  20
-374.6
  0
VERTEX
  8
Thick_Metal
  10
836.6
  20
-381
  0
VERTEX
  8
Thick_Metal
  10
846.2
  20
-381
  0
VERTEX
  8
Thick_Metal
  10
851
  20
-376.2
  0
VERTEX
  8
Thick_Metal
  10
851
  20
-345.8
  0
SEQEND
  0
POLYLINE
  8
Thick_Metal
  70
1
  66
1
  0
VERTEX
  8
Thick_Metal
  10
284.5
  20
269.5
  0
VERTEX
  8
Thick_Metal
  10
309.5
  20
269.5
  0
VERTEX
  8
Thick_Metal
  10
309.5
  20
294.5
  0
VERTEX
  8
Thick_Metal
  10
284.5
  20
294.5
  0
VERTEX
  8
Thick_Metal
  10
284.5
  20
269.5
  0
SEQEND
  0
POLYLINE
  8
Thick_Metal
  70
1
  66
1
  0
VERTEX
  8
Thick_Metal
  10
187.5
  20
-320.5
  0
VERTEX
  8
Thick_Metal
  10
212.5
  20
-320.5
  0
VERTEX
  8
Thick_Metal
  10
212.5
  20
-295.5
  0
VERTEX
  8
Thick_Metal
  10
187.5
  20
-295.5
  0
VERTEX
  8
Thick_Metal
  10
187.5
  20
-320.5
  0
SEQEND
  0
POLYLINE
  8
Thick_Metal
  70
1
  66
1
  0
VERTEX
  8
Thick_Metal
  10
187.5
  20
23.5
  0
VERTEX
  8
Thick_Metal
  10
212.5
  20
23.5
  0
VERTEX
  8
Thick_Metal
  10
212.5
  20
48.5
  0
VERTEX
  8
Thick_Metal
  10
187.5
  20
48.5
  0
VERTEX
  8
Thick_Metal
  10
187.5
  20
23.5
  0
SEQEND
  0
POLYLINE
  8
Thick_Metal
  70
1
  66
1
  0
VERTEX
  8
Thick_Metal
  10
2012
  20
48.5
  0
VERTEX
  8
Thick_Metal
  10
1987
  20
48.5
  0
VERTEX
  8
Thick_Metal
  10
1987
  20
23.5
  0
VERTEX
  8
Thick_Metal
  10
2012
  20
23.5
  0
VERTEX
  8
Thick_Metal
  10
2012
  20
48.5
  0
SEQEND
  0
POLYLINE
  8
Thick_Metal
  70
1
  66
1
  0
VERTEX
  8
Thick_Metal
  10
2012
  20
-295.5
  0
VERTEX
  8
Thick_Metal
  10
1987
  20
-295.5
  0
VERTEX
  8
Thick_Metal
  10
1987
  20
-320.5
  0
VERTEX
  8
Thick_Metal
  10
2012
  20
-320.5
  0
VERTEX
  8
Thick_Metal
  10
2012
  20
-295.5
  0
SEQEND
  0
POLYLINE
  8
Thick_Metal
  70
1
  66
1
  0
VERTEX
  8
Thick_Metal
  10
1599
  20
269.5
  0
VERTEX
  8
Thick_Metal
  10
1624
  20
269.5
  0
VERTEX
  8
Thick_Metal
  10
1624
  20
294.5
  0
VERTEX
  8
Thick_Metal
  10
1599
  20
294.5
  0
VERTEX
  8
Thick_Metal
  10
1599
  20
269.5
  0
SEQEND
  0
POLYLINE
  8
Thick_Metal
  70
1
  66
1
  0
VERTEX
  8
Thick_Metal
  10
1903
  20
269.5
  0
VERTEX
  8
Thick_Metal
  10
1928
  20
269.5
  0
VERTEX
  8
Thick_Metal
  10
1928
  20
294.5
  0
VERTEX
  8
Thick_Metal
  10
1903
  20
294.5
  0
VERTEX
  8
Thick_Metal
  10
1903
  20
269.5
  0
SEQEND
  0
POLYLINE
  8
Thick_Metal
  70
1
  66
1
  0
VERTEX
  8
Thick_Metal
  10
828
  20
299.1
  0
VERTEX
  8
Thick_Metal
  10
828
  20
292.86
  0
VERTEX
  8
Thick_Metal
  10
832.16
  20
292.86
  0
VERTEX
  8
Thick_Metal
  10
832.16
  20
295.2
  0
VERTEX
  8
Thick_Metal
  10
835.8
  20
295.2
  0
VERTEX
  8
Thick_Metal
  10
836.84
  20
294.16
  0
VERTEX
  8
Thick_Metal
  10
836.84
  20
283.5
  0
VERTEX
  8
Thick_Metal
  10
835.8
  20
282.46
  0
VERTEX
  8
Thick_Metal
  10
820.2
  20
282.46
  0
VERTEX
  8
Thick_Metal
  10
819.16
  20
283.5
  0
VERTEX
  8
Thick_Metal
  10
819.16
  20
293.9
  0
VERTEX
  8
Thick_Metal
  10
820.2
  20
294.94
  0
VERTEX
  8
Thick_Metal
  10
822.8
  20
294.94
  0
VERTEX
  8
Thick_Metal
  10
822.8
  20
299.1
  0
VERTEX
  8
Thick_Metal
  10
818.12
  20
299.1
  0
VERTEX
  8
Thick_Metal
  10
815
  20
295.98
  0
VERTEX
  8
Thick_Metal
  10
815
  20
281.42
  0
VERTEX
  8
Thick_Metal
  10
818.12
  20
278.3
  0
VERTEX
  8
Thick_Metal
  10
837.88
  20
278.3
  0
VERTEX
  8
Thick_Metal
  10
841
  20
281.42
  0
VERTEX
  8
Thick_Metal
  10
841
  20
295.98
  0
VERTEX
  8
Thick_Metal
  10
837.88
  20
299.1
  0
VERTEX
  8
Thick_Metal
  10
828
  20
299.1
  0
SEQEND
  0
POLYLINE
  8
Thick_Metal
  70
1
  66
1
  0
VERTEX
  8
Thick_Metal
  10
979.56
  20
315.6
  0
VERTEX
  8
Thick_Metal
  10
978
  20
314.04
  0
VERTEX
  8
Thick_Metal
  10
976.44
  20
315.6
  0
VERTEX
  8
Thick_Metal
  10
968.12
  20
315.6
  0
VERTEX
  8
Thick_Metal
  10
965
  20
312.48
  0
VERTEX
  8
Thick_Metal
  10
965
  20
297.92
  0
VERTEX
  8
Thick_Metal
  10
968.12
  20
294.8
  0
VERTEX
  8
Thick_Metal
  10
972.8
  20
294.8
  0
VERTEX
  8
Thick_Metal
  10
972.8
  20
298.96
  0
VERTEX
  8
Thick_Metal
  10
970.2
  20
298.96
  0
VERTEX
  8
Thick_Metal
  10
969.16
  20
300
  0
VERTEX
  8
Thick_Metal
  10
969.16
  20
310.4
  0
VERTEX
  8
Thick_Metal
  10
970.2
  20
311.44
  0
VERTEX
  8
Thick_Metal
  10
974.88
  20
311.44
  0
VERTEX
  8
Thick_Metal
  10
975.92
  20
310.4
  0
VERTEX
  8
Thick_Metal
  10
975.92
  20
301.56
  0
VERTEX
  8
Thick_Metal
  10
980.08
  20
301.56
  0
VERTEX
  8
Thick_Metal
  10
980.08
  20
310.4
  0
VERTEX
  8
Thick_Metal
  10
981.12
  20
311.44
  0
VERTEX
  8
Thick_Metal
  10
985.8
  20
311.44
  0
VERTEX
  8
Thick_Metal
  10
986.84
  20
310.4
  0
VERTEX
  8
Thick_Metal
  10
986.84
  20
300
  0
VERTEX
  8
Thick_Metal
  10
985.8
  20
298.96
  0
VERTEX
  8
Thick_Metal
  10
983.2
  20
298.96
  0
VERTEX
  8
Thick_Metal
  10
983.2
  20
294.8
  0
VERTEX
  8
Thick_Metal
  10
987.88
  20
294.8
  0
VERTEX
  8
Thick_Metal
  10
991
  20
297.92
  0
VERTEX
  8
Thick_Metal
  10
991
  20
312.48
  0
VERTEX
  8
Thick_Metal
  10
987.88
  20
315.6
  0
VERTEX
  8
Thick_Metal
  10
979.56
  20
315.6
  0
SEQEND
  0
POLYLINE
  8
Thick_Metal
  70
1
  66
1
  0
VERTEX
  8
Thick_Metal
  10
1115.5
  20
264.1
  0
VERTEX
  8
Thick_Metal
  10
1115.5
  20
259.94
  0
VERTEX
  8
Thick_Metal
  10
1129.02
  20
259.94
  0
VERTEX
  8
Thick_Metal
  10
1135.26
  20
253.7
  0
VERTEX
  8
Thick_Metal
  10
1129.02
  20
247.46
  0
VERTEX
  8
Thick_Metal
  10
1115.5
  20
247.46
  0
VERTEX
  8
Thick_Metal
  10
1115.5
  20
243.3
  0
VERTEX
  8
Thick_Metal
  10
1131.1
  20
243.3
  0
VERTEX
  8
Thick_Metal
  10
1141.5
  20
253.7
  0
VERTEX
  8
Thick_Metal
  10
1131.1
  20
264.1
  0
VERTEX
  8
Thick_Metal
  10
1115.5
  20
264.1
  0
SEQEND
  0
POLYLINE
  8
Thick_Metal
  70
1
  66
1
  0
VERTEX
  8
Thick_Metal
  10
1128.5
  20
290.1
  0
VERTEX
  8
Thick_Metal
  10
1128.5
  20
283.86
  0
VERTEX
  8
Thick_Metal
  10
1132.66
  20
283.86
  0
VERTEX
  8
Thick_Metal
  10
1132.66
  20
286.2
  0
VERTEX
  8
Thick_Metal
  10
1136.3
  20
286.2
  0
VERTEX
  8
Thick_Metal
  10
1137.34
  20
285.16
  0
VERTEX
  8
Thick_Metal
  10
1137.34
  20
274.5
  0
VERTEX
  8
Thick_Metal
  10
1136.3
  20
273.46
  0
VERTEX
  8
Thick_Metal
  10
1120.7
  20
273.46
  0
VERTEX
  8
Thick_Metal
  10
1119.66
  20
274.5
  0
VERTEX
  8
Thick_Metal
  10
1119.66
  20
284.9
  0
VERTEX
  8
Thick_Metal
  10
1120.7
  20
285.94
  0
VERTEX
  8
Thick_Metal
  10
1123.3
  20
285.94
  0
VERTEX
  8
Thick_Metal
  10
1123.3
  20
290.1
  0
VERTEX
  8
Thick_Metal
  10
1118.62
  20
290.1
  0
VERTEX
  8
Thick_Metal
  10
1115.5
  20
286.98
  0
VERTEX
  8
Thick_Metal
  10
1115.5
  20
272.42
  0
VERTEX
  8
Thick_Metal
  10
1118.62
  20
269.3
  0
VERTEX
  8
Thick_Metal
  10
1138.38
  20
269.3
  0
VERTEX
  8
Thick_Metal
  10
1141.5
  20
272.42
  0
VERTEX
  8
Thick_Metal
  10
1141.5
  20
286.98
  0
VERTEX
  8
Thick_Metal
  10
1138.38
  20
290.1
  0
VERTEX
  8
Thick_Metal
  10
1128.5
  20
290.1
  0
SEQEND
  0
POLYLINE
  8
Thick_Metal
  70
1
  66
1
  0
VERTEX
  8
Thick_Metal
  10
815
  20
273.1
  0
VERTEX
  8
Thick_Metal
  10
815
  20
268.94
  0
VERTEX
  8
Thick_Metal
  10
828.52
  20
268.94
  0
VERTEX
  8
Thick_Metal
  10
834.76
  20
262.7
  0
VERTEX
  8
Thick_Metal
  10
828.52
  20
256.46
  0
VERTEX
  8
Thick_Metal
  10
815
  20
256.46
  0
VERTEX
  8
Thick_Metal
  10
815
  20
252.3
  0
VERTEX
  8
Thick_Metal
  10
830.6
  20
252.3
  0
VERTEX
  8
Thick_Metal
  10
841
  20
262.7
  0
VERTEX
  8
Thick_Metal
  10
830.6
  20
273.1
  0
VERTEX
  8
Thick_Metal
  10
815
  20
273.1
  0
SEQEND
  0
POLYLINE
  8
Thick_Metal
  70
1
  66
1
  0
VERTEX
  8
Thick_Metal
  10
836.84
  20
325.1
  0
VERTEX
  8
Thick_Metal
  10
836.84
  20
308.46
  0
VERTEX
  8
Thick_Metal
  10
831.64
  20
315.39
  0
VERTEX
  8
Thick_Metal
  10
824.36
  20
325.1
  0
VERTEX
  8
Thick_Metal
  10
818.12
  20
325.1
  0
VERTEX
  8
Thick_Metal
  10
815
  20
321.98
  0
VERTEX
  8
Thick_Metal
  10
815
  20
307.42
  0
VERTEX
  8
Thick_Metal
  10
818.12
  20
304.3
  0
VERTEX
  8
Thick_Metal
  10
822.8
  20
304.3
  0
VERTEX
  8
Thick_Metal
  10
822.8
  20
308.46
  0
VERTEX
  8
Thick_Metal
  10
820.2
  20
308.46
  0
VERTEX
  8
Thick_Metal
  10
819.16
  20
309.5
  0
VERTEX
  8
Thick_Metal
  10
819.16
  20
319.9
  0
VERTEX
  8
Thick_Metal
  10
820.2
  20
320.94
  0
VERTEX
  8
Thick_Metal
  10
822.28
  20
320.94
  0
VERTEX
  8
Thick_Metal
  10
834.76
  20
304.3
  0
VERTEX
  8
Thick_Metal
  10
841
  20
304.3
  0
VERTEX
  8
Thick_Metal
  10
841
  20
325.1
  0
VERTEX
  8
Thick_Metal
  10
836.84
  20
325.1
  0
SEQEND
  0
POLYLINE
  8
Thick_Metal
  70
1
  66
1
  0
VERTEX
  8
Thick_Metal
  10
965
  20
263.6
  0
VERTEX
  8
Thick_Metal
  10
965
  20
259.44
  0
VERTEX
  8
Thick_Metal
  10
978.52
  20
259.44
  0
VERTEX
  8
Thick_Metal
  10
984.76
  20
253.2
  0
VERTEX
  8
Thick_Metal
  10
978.52
  20
246.96
  0
VERTEX
  8
Thick_Metal
  10
965
  20
246.96
  0
VERTEX
  8
Thick_Metal
  10
965
  20
242.8
  0
VERTEX
  8
Thick_Metal
  10
980.6
  20
242.8
  0
VERTEX
  8
Thick_Metal
  10
991
  20
253.2
  0
VERTEX
  8
Thick_Metal
  10
980.6
  20
263.6
  0
VERTEX
  8
Thick_Metal
  10
965
  20
263.6
  0
SEQEND
  0
POLYLINE
  8
Thick_Metal
  70
1
  66
1
  0
VERTEX
  8
Thick_Metal
  10
978
  20
289.6
  0
VERTEX
  8
Thick_Metal
  10
978
  20
283.36
  0
VERTEX
  8
Thick_Metal
  10
982.16
  20
283.36
  0
VERTEX
  8
Thick_Metal
  10
982.16
  20
285.7
  0
VERTEX
  8
Thick_Metal
  10
985.8
  20
285.7
  0
VERTEX
  8
Thick_Metal
  10
986.84
  20
284.66
  0
VERTEX
  8
Thick_Metal
  10
986.84
  20
274
  0
VERTEX
  8
Thick_Metal
  10
985.8
  20
272.96
  0
VERTEX
  8
Thick_Metal
  10
970.2
  20
272.96
  0
VERTEX
  8
Thick_Metal
  10
969.16
  20
274
  0
VERTEX
  8
Thick_Metal
  10
969.16
  20
284.4
  0
VERTEX
  8
Thick_Metal
  10
970.2
  20
285.44
  0
VERTEX
  8
Thick_Metal
  10
972.8
  20
285.44
  0
VERTEX
  8
Thick_Metal
  10
972.8
  20
289.6
  0
VERTEX
  8
Thick_Metal
  10
968.12
  20
289.6
  0
VERTEX
  8
Thick_Metal
  10
965
  20
286.48
  0
VERTEX
  8
Thick_Metal
  10
965
  20
271.92
  0
VERTEX
  8
Thick_Metal
  10
968.12
  20
268.8
  0
VERTEX
  8
Thick_Metal
  10
987.88
  20
268.8
  0
VERTEX
  8
Thick_Metal
  10
991
  20
271.92
  0
VERTEX
  8
Thick_Metal
  10
991
  20
286.48
  0
VERTEX
  8
Thick_Metal
  10
987.88
  20
289.6
  0
VERTEX
  8
Thick_Metal
  10
978
  20
289.6
  0
SEQEND
  0
POLYLINE
  8
Thick_Metal
  70
1
  66
1
  0
VERTEX
  8
Thick_Metal
  10
1126.42
  20
316.1
  0
VERTEX
  8
Thick_Metal
  10
1126.42
  20
309.86
  0
VERTEX
  8
Thick_Metal
  10
1115.5
  20
309.86
  0
VERTEX
  8
Thick_Metal
  10
1115.5
  20
305.7
  0
VERTEX
  8
Thick_Metal
  10
1126.42
  20
305.7
  0
VERTEX
  8
Thick_Metal
  10
1126.42
  20
299.46
  0
VERTEX
  8
Thick_Metal
  10
1115.5
  20
299.46
  0
VERTEX
  8
Thick_Metal
  10
1115.5
  20
295.3
  0
VERTEX
  8
Thick_Metal
  10
1130.58
  20
295.3
  0
VERTEX
  8
Thick_Metal
  10
1130.58
  20
305.7
  0
VERTEX
  8
Thick_Metal
  10
1141.5
  20
305.7
  0
VERTEX
  8
Thick_Metal
  10
1141.5
  20
309.86
  0
VERTEX
  8
Thick_Metal
  10
1130.58
  20
309.86
  0
VERTEX
  8
Thick_Metal
  10
1130.58
  20
316.1
  0
VERTEX
  8
Thick_Metal
  10
1126.42
  20
316.1
  0
SEQEND
  0
POLYLINE
  8
Thick_Metal
  70
1
  66
1
  0
VERTEX
  8
Thick_Metal
  10
1265.5
  20
267.1
  0
VERTEX
  8
Thick_Metal
  10
1265.5
  20
262.94
  0
VERTEX
  8
Thick_Metal
  10
1279.02
  20
262.94
  0
VERTEX
  8
Thick_Metal
  10
1285.26
  20
256.7
  0
VERTEX
  8
Thick_Metal
  10
1279.02
  20
250.46
  0
VERTEX
  8
Thick_Metal
  10
1265.5
  20
250.46
  0
VERTEX
  8
Thick_Metal
  10
1265.5
  20
246.3
  0
VERTEX
  8
Thick_Metal
  10
1281.1
  20
246.3
  0
VERTEX
  8
Thick_Metal
  10
1291.5
  20
256.7
  0
VERTEX
  8
Thick_Metal
  10
1281.1
  20
267.1
  0
VERTEX
  8
Thick_Metal
  10
1265.5
  20
267.1
  0
SEQEND
  0
POLYLINE
  8
Thick_Metal
  70
1
  66
1
  0
VERTEX
  8
Thick_Metal
  10
1426.5
  20
265.1
  0
VERTEX
  8
Thick_Metal
  10
1426.5
  20
258.86
  0
VERTEX
  8
Thick_Metal
  10
1430.66
  20
258.86
  0
VERTEX
  8
Thick_Metal
  10
1430.66
  20
261.2
  0
VERTEX
  8
Thick_Metal
  10
1434.3
  20
261.2
  0
VERTEX
  8
Thick_Metal
  10
1435.34
  20
260.16
  0
VERTEX
  8
Thick_Metal
  10
1435.34
  20
249.5
  0
VERTEX
  8
Thick_Metal
  10
1434.3
  20
248.46
  0
VERTEX
  8
Thick_Metal
  10
1418.7
  20
248.46
  0
VERTEX
  8
Thick_Metal
  10
1417.66
  20
249.5
  0
VERTEX
  8
Thick_Metal
  10
1417.66
  20
259.9
  0
VERTEX
  8
Thick_Metal
  10
1418.7
  20
260.94
  0
VERTEX
  8
Thick_Metal
  10
1421.3
  20
260.94
  0
VERTEX
  8
Thick_Metal
  10
1421.3
  20
265.1
  0
VERTEX
  8
Thick_Metal
  10
1416.62
  20
265.1
  0
VERTEX
  8
Thick_Metal
  10
1413.5
  20
261.98
  0
VERTEX
  8
Thick_Metal
  10
1413.5
  20
247.42
  0
VERTEX
  8
Thick_Metal
  10
1416.62
  20
244.3
  0
VERTEX
  8
Thick_Metal
  10
1436.38
  20
244.3
  0
VERTEX
  8
Thick_Metal
  10
1439.5
  20
247.42
  0
VERTEX
  8
Thick_Metal
  10
1439.5
  20
261.98
  0
VERTEX
  8
Thick_Metal
  10
1436.38
  20
265.1
  0
VERTEX
  8
Thick_Metal
  10
1426.5
  20
265.1
  0
SEQEND
  0
POLYLINE
  8
Thick_Metal
  70
1
  66
1
  0
VERTEX
  8
Thick_Metal
  10
1413.5
  20
291.1
  0
VERTEX
  8
Thick_Metal
  10
1413.5
  20
286.94
  0
VERTEX
  8
Thick_Metal
  10
1430.66
  20
286.94
  0
VERTEX
  8
Thick_Metal
  10
1413.5
  20
272.9
  0
VERTEX
  8
Thick_Metal
  10
1413.5
  20
270.3
  0
VERTEX
  8
Thick_Metal
  10
1439.5
  20
270.3
  0
VERTEX
  8
Thick_Metal
  10
1439.5
  20
274.46
  0
VERTEX
  8
Thick_Metal
  10
1422.34
  20
274.46
  0
VERTEX
  8
Thick_Metal
  10
1439.5
  20
288.5
  0
VERTEX
  8
Thick_Metal
  10
1439.5
  20
291.1
  0
VERTEX
  8
Thick_Metal
  10
1413.5
  20
291.1
  0
SEQEND
  0
POLYLINE
  8
Thick_Metal
  70
1
  66
1
  0
VERTEX
  8
Thick_Metal
  10
470.5
  20
265.3
  0
VERTEX
  8
Thick_Metal
  10
470.5
  20
261.14
  0
VERTEX
  8
Thick_Metal
  10
484.02
  20
261.14
  0
VERTEX
  8
Thick_Metal
  10
490.26
  20
254.9
  0
VERTEX
  8
Thick_Metal
  10
484.02
  20
248.66
  0
VERTEX
  8
Thick_Metal
  10
470.5
  20
248.66
  0
VERTEX
  8
Thick_Metal
  10
470.5
  20
244.5
  0
VERTEX
  8
Thick_Metal
  10
486.1
  20
244.5
  0
VERTEX
  8
Thick_Metal
  10
496.5
  20
254.9
  0
VERTEX
  8
Thick_Metal
  10
486.1
  20
265.3
  0
VERTEX
  8
Thick_Metal
  10
470.5
  20
265.3
  0
SEQEND
  0
POLYLINE
  8
Thick_Metal
  70
1
  66
1
  0
VERTEX
  8
Thick_Metal
  10
483.5
  20
291.3
  0
VERTEX
  8
Thick_Metal
  10
483.5
  20
285.06
  0
VERTEX
  8
Thick_Metal
  10
487.66
  20
285.06
  0
VERTEX
  8
Thick_Metal
  10
487.66
  20
287.4
  0
VERTEX
  8
Thick_Metal
  10
491.3
  20
287.4
  0
VERTEX
  8
Thick_Metal
  10
492.34
  20
286.36
  0
VERTEX
  8
Thick_Metal
  10
492.34
  20
275.7
  0
VERTEX
  8
Thick_Metal
  10
491.3
  20
274.66
  0
VERTEX
  8
Thick_Metal
  10
475.7
  20
274.66
  0
VERTEX
  8
Thick_Metal
  10
474.66
  20
275.7
  0
VERTEX
  8
Thick_Metal
  10
474.66
  20
286.1
  0
VERTEX
  8
Thick_Metal
  10
475.7
  20
287.14
  0
VERTEX
  8
Thick_Metal
  10
478.3
  20
287.14
  0
VERTEX
  8
Thick_Metal
  10
478.3
  20
291.3
  0
VERTEX
  8
Thick_Metal
  10
473.62
  20
291.3
  0
VERTEX
  8
Thick_Metal
  10
470.5
  20
288.18
  0
VERTEX
  8
Thick_Metal
  10
470.5
  20
273.62
  0
VERTEX
  8
Thick_Metal
  10
473.62
  20
270.5
  0
VERTEX
  8
Thick_Metal
  10
493.38
  20
270.5
  0
VERTEX
  8
Thick_Metal
  10
496.5
  20
273.62
  0
VERTEX
  8
Thick_Metal
  10
496.5
  20
288.18
  0
VERTEX
  8
Thick_Metal
  10
493.38
  20
291.3
  0
VERTEX
  8
Thick_Metal
  10
483.5
  20
291.3
  0
SEQEND
  0
POLYLINE
  8
Thick_Metal
  70
1
  66
1
  0
VERTEX
  8
Thick_Metal
  10
492.34
  20
312.1
  0
VERTEX
  8
Thick_Metal
  10
492.34
  20
306.38
  0
VERTEX
  8
Thick_Metal
  10
470.5
  20
306.38
  0
VERTEX
  8
Thick_Metal
  10
470.5
  20
300.66
  0
VERTEX
  8
Thick_Metal
  10
474.66
  20
300.66
  0
VERTEX
  8
Thick_Metal
  10
474.66
  20
302.22
  0
VERTEX
  8
Thick_Metal
  10
492.34
  20
302.22
  0
VERTEX
  8
Thick_Metal
  10
492.34
  20
296.5
  0
VERTEX
  8
Thick_Metal
  10
496.5
  20
296.5
  0
VERTEX
  8
Thick_Metal
  10
496.5
  20
312.1
  0
VERTEX
  8
Thick_Metal
  10
492.34
  20
312.1
  0
SEQEND
  0
POLYLINE
  8
Thick_Metal
  70
1
  66
1
  0
VERTEX
  8
Thick_Metal
  10
691
  20
-345.8
  0
VERTEX
  8
Thick_Metal
  10
686.2
  20
-341
  0
VERTEX
  8
Thick_Metal
  10
676.6
  20
-341
  0
VERTEX
  8
Thick_Metal
  10
676.6
  20
-347.4
  0
VERTEX
  8
Thick_Metal
  10
683
  20
-347.4
  0
VERTEX
  8
Thick_Metal
  10
684.6
  20
-349
  0
VERTEX
  8
Thick_Metal
  10
684.6
  20
-356.2
  0
VERTEX
  8
Thick_Metal
  10
683
  20
-357.8
  0
VERTEX
  8
Thick_Metal
  10
676.6
  20
-357.8
  0
VERTEX
  8
Thick_Metal
  10
676.6
  20
-364.2
  0
VERTEX
  8
Thick_Metal
  10
686.2
  20
-364.2
  0
VERTEX
  8
Thick_Metal
  10
691
  20
-359.4
  0
VERTEX
  8
Thick_Metal
  10
691
  20
-345.8
  0
SEQEND
  0
POLYLINE
  8
Thick_Metal
  70
1
  66
1
  0
VERTEX
  8
Thick_Metal
  10
916.6
  20
-364.2
  0
VERTEX
  8
Thick_Metal
  10
923
  20
-364.2
  0
VERTEX
  8
Thick_Metal
  10
924.6
  20
-365.8
  0
VERTEX
  8
Thick_Metal
  10
924.6
  20
-373
  0
VERTEX
  8
Thick_Metal
  10
923
  20
-374.6
  0
VERTEX
  8
Thick_Metal
  10
916.6
  20
-374.6
  0
VERTEX
  8
Thick_Metal
  10
916.6
  20
-381
  0
VERTEX
  8
Thick_Metal
  10
926.2
  20
-381
  0
VERTEX
  8
Thick_Metal
  10
931
  20
-376.2
  0
VERTEX
  8
Thick_Metal
  10
931
  20
-363
  0
VERTEX
  8
Thick_Metal
  10
925.8
  20
-357.8
  0
VERTEX
  8
Thick_Metal
  10
916.6
  20
-357.8
  0
VERTEX
  8
Thick_Metal
  10
916.6
  20
-364.2
  0
SEQEND
  0
POLYLINE
  8
Thick_Metal
  70
1
  66
1
  0
VERTEX
  8
Thick_Metal
  10
1268.62
  20
319.1
  0
VERTEX
  8
Thick_Metal
  10
1265.5
  20
315.98
  0
VERTEX
  8
Thick_Metal
  10
1265.5
  20
309.74
  0
VERTEX
  8
Thick_Metal
  10
1269.66
  20
309.74
  0
VERTEX
  8
Thick_Metal
  10
1269.66
  20
313.9
  0
VERTEX
  8
Thick_Metal
  10
1270.7
  20
314.94
  0
VERTEX
  8
Thick_Metal
  10
1286.3
  20
314.94
  0
VERTEX
  8
Thick_Metal
  10
1287.34
  20
313.9
  0
VERTEX
  8
Thick_Metal
  10
1287.34
  20
309.74
  0
VERTEX
  8
Thick_Metal
  10
1291.5
  20
309.74
  0
VERTEX
  8
Thick_Metal
  10
1291.5
  20
315.98
  0
VERTEX
  8
Thick_Metal
  10
1288.38
  20
319.1
  0
VERTEX
  8
Thick_Metal
  10
1268.62
  20
319.1
  0
SEQEND
  0
POLYLINE
  8
Thick_Metal
  70
1
  66
1
  0
VERTEX
  8
Thick_Metal
  10
1287.34
  20
281.66
  0
VERTEX
  8
Thick_Metal
  10
1287.34
  20
276.46
  0
VERTEX
  8
Thick_Metal
  10
1269.66
  20
276.46
  0
VERTEX
  8
Thick_Metal
  10
1269.66
  20
281.66
  0
VERTEX
  8
Thick_Metal
  10
1265.5
  20
281.66
  0
VERTEX
  8
Thick_Metal
  10
1265.5
  20
272.3
  0
VERTEX
  8
Thick_Metal
  10
1291.5
  20
272.3
  0
VERTEX
  8
Thick_Metal
  10
1291.5
  20
281.66
  0
VERTEX
  8
Thick_Metal
  10
1287.34
  20
281.66
  0
SEQEND
  0
POLYLINE
  8
Thick_Metal
  70
1
  66
1
  0
VERTEX
  8
Thick_Metal
  10
1268.62
  20
293.1
  0
VERTEX
  8
Thick_Metal
  10
1265.5
  20
289.98
  0
VERTEX
  8
Thick_Metal
  10
1265.5
  20
283.74
  0
VERTEX
  8
Thick_Metal
  10
1269.66
  20
283.74
  0
VERTEX
  8
Thick_Metal
  10
1269.66
  20
287.9
  0
VERTEX
  8
Thick_Metal
  10
1270.7
  20
288.94
  0
VERTEX
  8
Thick_Metal
  10
1286.3
  20
288.94
  0
VERTEX
  8
Thick_Metal
  10
1287.34
  20
287.9
  0
VERTEX
  8
Thick_Metal
  10
1287.34
  20
283.74
  0
VERTEX
  8
Thick_Metal
  10
1291.5
  20
283.74
  0
VERTEX
  8
Thick_Metal
  10
1291.5
  20
289.98
  0
VERTEX
  8
Thick_Metal
  10
1288.38
  20
293.1
  0
VERTEX
  8
Thick_Metal
  10
1268.62
  20
293.1
  0
SEQEND
  0
POLYLINE
  8
Thick_Metal
  70
1
  66
1
  0
VERTEX
  8
Thick_Metal
  10
1287.34
  20
307.66
  0
VERTEX
  8
Thick_Metal
  10
1287.34
  20
302.46
  0
VERTEX
  8
Thick_Metal
  10
1269.66
  20
302.46
  0
VERTEX
  8
Thick_Metal
  10
1269.66
  20
307.66
  0
VERTEX
  8
Thick_Metal
  10
1265.5
  20
307.66
  0
VERTEX
  8
Thick_Metal
  10
1265.5
  20
298.3
  0
VERTEX
  8
Thick_Metal
  10
1291.5
  20
298.3
  0
VERTEX
  8
Thick_Metal
  10
1291.5
  20
307.66
  0
VERTEX
  8
Thick_Metal
  10
1287.34
  20
307.66
  0
SEQEND
  0
POLYLINE
  8
Thick_Metal
  70
1
  66
1
  0
VERTEX
  8
Thick_Metal
  10
1435.34
  20
305.66
  0
VERTEX
  8
Thick_Metal
  10
1435.34
  20
300.46
  0
VERTEX
  8
Thick_Metal
  10
1417.66
  20
300.46
  0
VERTEX
  8
Thick_Metal
  10
1417.66
  20
305.66
  0
VERTEX
  8
Thick_Metal
  10
1413.5
  20
305.66
  0
VERTEX
  8
Thick_Metal
  10
1413.5
  20
296.3
  0
VERTEX
  8
Thick_Metal
  10
1439.5
  20
296.3
  0
VERTEX
  8
Thick_Metal
  10
1439.5
  20
305.66
  0
VERTEX
  8
Thick_Metal
  10
1435.34
  20
305.66
  0
SEQEND
  0
POLYLINE
  8
Thick_Metal
  70
1
  66
1
  0
VERTEX
  8
Thick_Metal
  10
1416.62
  20
317.1
  0
VERTEX
  8
Thick_Metal
  10
1413.5
  20
313.98
  0
VERTEX
  8
Thick_Metal
  10
1413.5
  20
307.74
  0
VERTEX
  8
Thick_Metal
  10
1417.66
  20
307.74
  0
VERTEX
  8
Thick_Metal
  10
1417.66
  20
311.9
  0
VERTEX
  8
Thick_Metal
  10
1418.7
  20
312.94
  0
VERTEX
  8
Thick_Metal
  10
1434.3
  20
312.94
  0
VERTEX
  8
Thick_Metal
  10
1435.34
  20
311.9
  0
VERTEX
  8
Thick_Metal
  10
1435.34
  20
307.74
  0
VERTEX
  8
Thick_Metal
  10
1439.5
  20
307.74
  0
VERTEX
  8
Thick_Metal
  10
1439.5
  20
313.98
  0
VERTEX
  8
Thick_Metal
  10
1436.38
  20
317.1
  0
VERTEX
  8
Thick_Metal
  10
1416.62
  20
317.1
  0
SEQEND
  0
POLYLINE
  8
Thick_Metal
  70
1
  66
1
  0
VERTEX
  8
Thick_Metal
  10
734
  20
-331
  0
VERTEX
  8
Thick_Metal
  10
758
  20
-331
  0
VERTEX
  8
Thick_Metal
  10
758
  20
-324.6
  0
VERTEX
  8
Thick_Metal
  10
734
  20
-324.6
  0
VERTEX
  8
Thick_Metal
  10
734
  20
-331
  0
SEQEND
  0
ENDSEC
  0
EOF
