  0
SECTION
  2
HEADER
  9
$ACADVER
  1
AC1009
  9
$INSUNITS
  70
13
  9
$EXTMIN
  10
-947
  20
-1421
  9
$EXTMAX
  10
1618
  20
-576
  0
ENDSEC
  0
SECTION
  2
TABLES
  0
TABLE
  2
LTYPE
  70
1
  0
LTYPE
  2
CONTINUOUS
  70
64
  3
Solid line
  72
65
  73
0
  40
0
  0
ENDTAB
  0
TABLE
  2
LAYER
  70
2
  0
LAYER
  2
0_0
  70
0
  62
1
  6
CONTINUOUS
  0
LAYER
  2
1_0
  70
0
  62
1
  6
CONTINUOUS
  0
ENDTAB
  0
ENDSEC
  0
SECTION
  2
BLOCKS
  0
BLOCK
  2
LN5_100
  3
LN5_100
  10
0
  20
0
  70
0
  0
POLYLINE
  8
0_0
  70
1
  66
1
  0
VERTEX
  8
0_0
  10
-947
  20
-626
  0
VERTEX
  8
0_0
  10
1618
  20
-626
  0
VERTEX
  8
0_0
  10
1618
  20
-576
  0
VERTEX
  8
0_0
  10
-947
  20
-576
  0
VERTEX
  8
0_0
  10
-947
  20
-626
  0
SEQEND
  0
POLYLINE
  8
0_0
  70
1
  66
1
  0
VERTEX
  8
0_0
  10
-947
  20
-1421
  0
VERTEX
  8
0_0
  10
1618
  20
-1421
  0
VERTEX
  8
0_0
  10
1618
  20
-1371
  0
VERTEX
  8
0_0
  10
-947
  20
-1371
  0
VERTEX
  8
0_0
  10
-947
  20
-1421
  0
SEQEND
  0
POLYLINE
  8
0_0
  70
1
  66
1
  0
VERTEX
  8
0_0
  10
-947
  20
-1371
  0
VERTEX
  8
0_0
  10
-897
  20
-1371
  0
VERTEX
  8
0_0
  10
-897
  20
-626
  0
VERTEX
  8
0_0
  10
-947
  20
-626
  0
VERTEX
  8
0_0
  10
-947
  20
-1371
  0
SEQEND
  0
POLYLINE
  8
0_0
  70
1
  66
1
  0
VERTEX
  8
0_0
  10
1568
  20
-1371
  0
VERTEX
  8
0_0
  10
1618
  20
-1371
  0
VERTEX
  8
0_0
  10
1618
  20
-626
  0
VERTEX
  8
0_0
  10
1568
  20
-626
  0
VERTEX
  8
0_0
  10
1568
  20
-1371
  0
SEQEND
  0
POLYLINE
  8
1_0
  70
1
  66
1
  0
VERTEX
  8
1_0
  10
659.5
  20
-726.5
  0
VERTEX
  8
1_0
  10
819.5
  20
-726.5
  0
VERTEX
  8
1_0
  10
819.5
  20
-642.5
  0
VERTEX
  8
1_0
  10
659.5
  20
-642.5
  0
VERTEX
  8
1_0
  10
659.5
  20
-726.5
  0
SEQEND
  0
POLYLINE
  8
1_0
  70
1
  66
1
  0
VERTEX
  8
1_0
  10
659.5
  20
-726.5
  0
VERTEX
  8
1_0
  10
819.5
  20
-726.5
  0
VERTEX
  8
1_0
  10
819.5
  20
-642.5
  0
VERTEX
  8
1_0
  10
659.5
  20
-642.5
  0
VERTEX
  8
1_0
  10
659.5
  20
-726.5
  0
SEQEND
  0
POLYLINE
  8
1_0
  70
1
  66
1
  0
VERTEX
  8
1_0
  10
659.5
  20
-726.5
  0
VERTEX
  8
1_0
  10
819.5
  20
-726.5
  0
VERTEX
  8
1_0
  10
819.5
  20
-642.5
  0
VERTEX
  8
1_0
  10
659.5
  20
-642.5
  0
VERTEX
  8
1_0
  10
659.5
  20
-726.5
  0
SEQEND
  0
POLYLINE
  8
1_0
  70
1
  66
1
  0
VERTEX
  8
1_0
  10
661.5
  20
-724.5
  0
VERTEX
  8
1_0
  10
817.5
  20
-724.5
  0
VERTEX
  8
1_0
  10
817.5
  20
-644.5
  0
VERTEX
  8
1_0
  10
661.5
  20
-644.5
  0
VERTEX
  8
1_0
  10
661.5
  20
-724.5
  0
SEQEND
  0
POLYLINE
  8
1_0
  70
1
  66
1
  0
VERTEX
  8
1_0
  10
1050.5
  20
-724
  0
VERTEX
  8
1_0
  10
1050.5
  20
-642.5
  0
VERTEX
  8
1_0
  10
900.5
  20
-642.5
  0
VERTEX
  8
1_0
  10
900.5
  20
-724
  0
VERTEX
  8
1_0
  10
1050.5
  20
-724
  0
SEQEND
  0
POLYLINE
  8
1_0
  70
1
  66
1
  0
VERTEX
  8
1_0
  10
1050.5
  20
-724
  0
VERTEX
  8
1_0
  10
1050.5
  20
-642.5
  0
VERTEX
  8
1_0
  10
900.5
  20
-642.5
  0
VERTEX
  8
1_0
  10
900.5
  20
-724
  0
VERTEX
  8
1_0
  10
1050.5
  20
-724
  0
SEQEND
  0
POLYLINE
  8
1_0
  70
1
  66
1
  0
VERTEX
  8
1_0
  10
1050.5
  20
-724
  0
VERTEX
  8
1_0
  10
1050.5
  20
-642.5
  0
VERTEX
  8
1_0
  10
900.5
  20
-642.5
  0
VERTEX
  8
1_0
  10
900.5
  20
-724
  0
VERTEX
  8
1_0
  10
1050.5
  20
-724
  0
SEQEND
  0
POLYLINE
  8
1_0
  70
1
  66
1
  0
VERTEX
  8
1_0
  10
-568
  20
-768.5
  0
VERTEX
  8
1_0
  10
-568
  20
-758.5
  0
VERTEX
  8
1_0
  10
-487
  20
-758.5
  0
VERTEX
  8
1_0
  10
-487
  20
-727
  0
VERTEX
  8
1_0
  10
-497
  20
-727
  0
VERTEX
  8
1_0
  10
-497
  20
-748.5
  0
VERTEX
  8
1_0
  10
-675
  20
-748.5
  0
VERTEX
  8
1_0
  10
-675
  20
-768.5
  0
VERTEX
  8
1_0
  10
-568
  20
-768.5
  0
SEQEND
  0
POLYLINE
  8
1_0
  70
1
  66
1
  0
VERTEX
  8
1_0
  10
663.5
  20
-722.5
  0
VERTEX
  8
1_0
  10
815.5
  20
-722.5
  0
VERTEX
  8
1_0
  10
815.5
  20
-646.5
  0
VERTEX
  8
1_0
  10
663.5
  20
-646.5
  0
VERTEX
  8
1_0
  10
663.5
  20
-722.5
  0
SEQEND
  0
POLYLINE
  8
1_0
  70
1
  66
1
  0
VERTEX
  8
1_0
  10
-488
  20
-728
  0
VERTEX
  8
1_0
  10
-496
  20
-728
  0
VERTEX
  8
1_0
  10
-496
  20
-749.5
  0
VERTEX
  8
1_0
  10
-674
  20
-749.5
  0
VERTEX
  8
1_0
  10
-674
  20
-767.5
  0
VERTEX
  8
1_0
  10
-569
  20
-767.5
  0
VERTEX
  8
1_0
  10
-569
  20
-757.5
  0
VERTEX
  8
1_0
  10
-488
  20
-757.5
  0
VERTEX
  8
1_0
  10
-488
  20
-728
  0
SEQEND
  0
POLYLINE
  8
1_0
  70
1
  66
1
  0
VERTEX
  8
1_0
  10
664.5
  20
-721.5
  0
VERTEX
  8
1_0
  10
814.5
  20
-721.5
  0
VERTEX
  8
1_0
  10
814.5
  20
-647.5
  0
VERTEX
  8
1_0
  10
664.5
  20
-647.5
  0
VERTEX
  8
1_0
  10
664.5
  20
-721.5
  0
SEQEND
  0
POLYLINE
  8
1_0
  70
1
  66
1
  0
VERTEX
  8
1_0
  10
1048.5
  20
-722
  0
VERTEX
  8
1_0
  10
1048.5
  20
-644.5
  0
VERTEX
  8
1_0
  10
902.5
  20
-644.5
  0
VERTEX
  8
1_0
  10
902.5
  20
-722
  0
VERTEX
  8
1_0
  10
1048.5
  20
-722
  0
SEQEND
  0
POLYLINE
  8
1_0
  70
1
  66
1
  0
VERTEX
  8
1_0
  10
1046.5
  20
-720
  0
VERTEX
  8
1_0
  10
1046.5
  20
-646.5
  0
VERTEX
  8
1_0
  10
904.5
  20
-646.5
  0
VERTEX
  8
1_0
  10
904.5
  20
-720
  0
VERTEX
  8
1_0
  10
1046.5
  20
-720
  0
SEQEND
  0
POLYLINE
  8
1_0
  70
1
  66
1
  0
VERTEX
  8
1_0
  10
1045.5
  20
-719
  0
VERTEX
  8
1_0
  10
1045.5
  20
-647.5
  0
VERTEX
  8
1_0
  10
905.5
  20
-647.5
  0
VERTEX
  8
1_0
  10
905.5
  20
-719
  0
VERTEX
  8
1_0
  10
1045.5
  20
-719
  0
SEQEND
  0
POLYLINE
  8
1_0
  70
1
  66
1
  0
VERTEX
  8
1_0
  10
-318.5
  20
-740.5
  0
VERTEX
  8
1_0
  10
-216.5
  20
-740.5
  0
VERTEX
  8
1_0
  10
-216.5
  20
-638.5
  0
VERTEX
  8
1_0
  10
-318.5
  20
-638.5
  0
VERTEX
  8
1_0
  10
-318.5
  20
-740.5
  0
SEQEND
  0
POLYLINE
  8
1_0
  70
1
  66
1
  0
VERTEX
  8
1_0
  10
-648
  20
-740.5
  0
VERTEX
  8
1_0
  10
-546
  20
-740.5
  0
VERTEX
  8
1_0
  10
-546
  20
-638.5
  0
VERTEX
  8
1_0
  10
-648
  20
-638.5
  0
VERTEX
  8
1_0
  10
-648
  20
-740.5
  0
SEQEND
  0
POLYLINE
  8
1_0
  70
1
  66
1
  0
VERTEX
  8
1_0
  10
448.5
  20
-740.5
  0
VERTEX
  8
1_0
  10
550.5
  20
-740.5
  0
VERTEX
  8
1_0
  10
550.5
  20
-638.5
  0
VERTEX
  8
1_0
  10
448.5
  20
-638.5
  0
VERTEX
  8
1_0
  10
448.5
  20
-740.5
  0
SEQEND
  0
POLYLINE
  8
1_0
  70
1
  66
1
  0
VERTEX
  8
1_0
  10
298.5
  20
-740.5
  0
VERTEX
  8
1_0
  10
400.5
  20
-740.5
  0
VERTEX
  8
1_0
  10
400.5
  20
-638.5
  0
VERTEX
  8
1_0
  10
298.5
  20
-638.5
  0
VERTEX
  8
1_0
  10
298.5
  20
-740.5
  0
SEQEND
  0
POLYLINE
  8
1_0
  70
1
  66
1
  0
VERTEX
  8
1_0
  10
148.5
  20
-740.5
  0
VERTEX
  8
1_0
  10
250.5
  20
-740.5
  0
VERTEX
  8
1_0
  10
250.5
  20
-638.5
  0
VERTEX
  8
1_0
  10
148.5
  20
-638.5
  0
VERTEX
  8
1_0
  10
148.5
  20
-740.5
  0
SEQEND
  0
POLYLINE
  8
1_0
  70
1
  66
1
  0
VERTEX
  8
1_0
  10
-1.5
  20
-740.5
  0
VERTEX
  8
1_0
  10
100.5
  20
-740.5
  0
VERTEX
  8
1_0
  10
100.5
  20
-638.5
  0
VERTEX
  8
1_0
  10
-1.5
  20
-638.5
  0
VERTEX
  8
1_0
  10
-1.5
  20
-740.5
  0
SEQEND
  0
POLYLINE
  8
1_0
  70
1
  66
1
  0
VERTEX
  8
1_0
  10
-151.5
  20
-740.5
  0
VERTEX
  8
1_0
  10
-49.5
  20
-740.5
  0
VERTEX
  8
1_0
  10
-49.5
  20
-638.5
  0
VERTEX
  8
1_0
  10
-151.5
  20
-638.5
  0
VERTEX
  8
1_0
  10
-151.5
  20
-740.5
  0
SEQEND
  0
POLYLINE
  8
1_0
  70
1
  66
1
  0
VERTEX
  8
1_0
  10
-498
  20
-740.5
  0
VERTEX
  8
1_0
  10
-396
  20
-740.5
  0
VERTEX
  8
1_0
  10
-396
  20
-638.5
  0
VERTEX
  8
1_0
  10
-498
  20
-638.5
  0
VERTEX
  8
1_0
  10
-498
  20
-740.5
  0
SEQEND
  0
POLYLINE
  8
1_0
  70
1
  66
1
  0
VERTEX
  8
1_0
  10
-497
  20
-739.5
  0
VERTEX
  8
1_0
  10
-397
  20
-739.5
  0
VERTEX
  8
1_0
  10
-397
  20
-639.5
  0
VERTEX
  8
1_0
  10
-497
  20
-639.5
  0
VERTEX
  8
1_0
  10
-497
  20
-739.5
  0
SEQEND
  0
POLYLINE
  8
1_0
  70
1
  66
1
  0
VERTEX
  8
1_0
  10
449.5
  20
-739.5
  0
VERTEX
  8
1_0
  10
549.5
  20
-739.5
  0
VERTEX
  8
1_0
  10
549.5
  20
-639.5
  0
VERTEX
  8
1_0
  10
449.5
  20
-639.5
  0
VERTEX
  8
1_0
  10
449.5
  20
-739.5
  0
SEQEND
  0
POLYLINE
  8
1_0
  70
1
  66
1
  0
VERTEX
  8
1_0
  10
299.5
  20
-739.5
  0
VERTEX
  8
1_0
  10
399.5
  20
-739.5
  0
VERTEX
  8
1_0
  10
399.5
  20
-639.5
  0
VERTEX
  8
1_0
  10
299.5
  20
-639.5
  0
VERTEX
  8
1_0
  10
299.5
  20
-739.5
  0
SEQEND
  0
POLYLINE
  8
1_0
  70
1
  66
1
  0
VERTEX
  8
1_0
  10
-317.5
  20
-739.5
  0
VERTEX
  8
1_0
  10
-217.5
  20
-739.5
  0
VERTEX
  8
1_0
  10
-217.5
  20
-639.5
  0
VERTEX
  8
1_0
  10
-317.5
  20
-639.5
  0
VERTEX
  8
1_0
  10
-317.5
  20
-739.5
  0
SEQEND
  0
POLYLINE
  8
1_0
  70
1
  66
1
  0
VERTEX
  8
1_0
  10
-150.5
  20
-739.5
  0
VERTEX
  8
1_0
  10
-50.5
  20
-739.5
  0
VERTEX
  8
1_0
  10
-50.5
  20
-639.5
  0
VERTEX
  8
1_0
  10
-150.5
  20
-639.5
  0
VERTEX
  8
1_0
  10
-150.5
  20
-739.5
  0
SEQEND
  0
POLYLINE
  8
1_0
  70
1
  66
1
  0
VERTEX
  8
1_0
  10
-0.5
  20
-739.5
  0
VERTEX
  8
1_0
  10
99.5
  20
-739.5
  0
VERTEX
  8
1_0
  10
99.5
  20
-639.5
  0
VERTEX
  8
1_0
  10
-0.5
  20
-639.5
  0
VERTEX
  8
1_0
  10
-0.5
  20
-739.5
  0
SEQEND
  0
POLYLINE
  8
1_0
  70
1
  66
1
  0
VERTEX
  8
1_0
  10
-851.5
  20
-984.5
  0
VERTEX
  8
1_0
  10
-751.5
  20
-984.5
  0
VERTEX
  8
1_0
  10
-751.5
  20
-884.5
  0
VERTEX
  8
1_0
  10
-851.5
  20
-884.5
  0
VERTEX
  8
1_0
  10
-851.5
  20
-984.5
  0
SEQEND
  0
POLYLINE
  8
1_0
  70
1
  66
1
  0
VERTEX
  8
1_0
  10
-851.5
  20
-1328.5
  0
VERTEX
  8
1_0
  10
-751.5
  20
-1328.5
  0
VERTEX
  8
1_0
  10
-751.5
  20
-1228.5
  0
VERTEX
  8
1_0
  10
-851.5
  20
-1228.5
  0
VERTEX
  8
1_0
  10
-851.5
  20
-1328.5
  0
SEQEND
  0
POLYLINE
  8
1_0
  70
1
  66
1
  0
VERTEX
  8
1_0
  10
-756
  20
-738.5
  0
VERTEX
  8
1_0
  10
-656
  20
-738.5
  0
VERTEX
  8
1_0
  10
-656
  20
-638.5
  0
VERTEX
  8
1_0
  10
-756
  20
-638.5
  0
VERTEX
  8
1_0
  10
-756
  20
-738.5
  0
SEQEND
  0
POLYLINE
  8
1_0
  70
1
  66
1
  0
VERTEX
  8
1_0
  10
558.5
  20
-738.5
  0
VERTEX
  8
1_0
  10
658.5
  20
-738.5
  0
VERTEX
  8
1_0
  10
658.5
  20
-638.5
  0
VERTEX
  8
1_0
  10
558.5
  20
-638.5
  0
VERTEX
  8
1_0
  10
558.5
  20
-738.5
  0
SEQEND
  0
POLYLINE
  8
1_0
  70
1
  66
1
  0
VERTEX
  8
1_0
  10
1053.5
  20
-740.5
  0
VERTEX
  8
1_0
  10
1153.5
  20
-740.5
  0
VERTEX
  8
1_0
  10
1153.5
  20
-640.5
  0
VERTEX
  8
1_0
  10
1053.5
  20
-640.5
  0
VERTEX
  8
1_0
  10
1053.5
  20
-740.5
  0
SEQEND
  0
POLYLINE
  8
1_0
  70
1
  66
1
  0
VERTEX
  8
1_0
  10
-32.5
  20
-762
  0
VERTEX
  8
1_0
  10
-132.5
  20
-762
  0
VERTEX
  8
1_0
  10
-132.5
  20
-862
  0
VERTEX
  8
1_0
  10
-32.5
  20
-862
  0
VERTEX
  8
1_0
  10
-32.5
  20
-762
  0
SEQEND
  0
POLYLINE
  8
1_0
  70
1
  66
1
  0
VERTEX
  8
1_0
  10
-273.5
  20
-762
  0
VERTEX
  8
1_0
  10
-373.5
  20
-762
  0
VERTEX
  8
1_0
  10
-373.5
  20
-862
  0
VERTEX
  8
1_0
  10
-273.5
  20
-862
  0
VERTEX
  8
1_0
  10
-273.5
  20
-762
  0
SEQEND
  0
POLYLINE
  8
1_0
  70
1
  66
1
  0
VERTEX
  8
1_0
  10
1532.5
  20
-1228
  0
VERTEX
  8
1_0
  10
1432.5
  20
-1228
  0
VERTEX
  8
1_0
  10
1432.5
  20
-1328
  0
VERTEX
  8
1_0
  10
1532.5
  20
-1328
  0
VERTEX
  8
1_0
  10
1532.5
  20
-1228
  0
SEQEND
  0
POLYLINE
  8
1_0
  70
1
  66
1
  0
VERTEX
  8
1_0
  10
1532.5
  20
-884
  0
VERTEX
  8
1_0
  10
1432.5
  20
-884
  0
VERTEX
  8
1_0
  10
1432.5
  20
-984
  0
VERTEX
  8
1_0
  10
1532.5
  20
-984
  0
VERTEX
  8
1_0
  10
1532.5
  20
-884
  0
SEQEND
  0
POLYLINE
  8
1_0
  70
1
  66
1
  0
VERTEX
  8
1_0
  10
-515
  20
-800
  0
VERTEX
  8
1_0
  10
-615
  20
-800
  0
VERTEX
  8
1_0
  10
-615
  20
-900
  0
VERTEX
  8
1_0
  10
-515
  20
-900
  0
VERTEX
  8
1_0
  10
-515
  20
-800
  0
SEQEND
  0
POLYLINE
  8
1_0
  70
1
  66
1
  0
VERTEX
  8
1_0
  10
449.5
  20
-739.5
  0
VERTEX
  8
1_0
  10
549.5
  20
-739.5
  0
VERTEX
  8
1_0
  10
549.5
  20
-639.5
  0
VERTEX
  8
1_0
  10
449.5
  20
-639.5
  0
VERTEX
  8
1_0
  10
449.5
  20
-739.5
  0
SEQEND
  0
POLYLINE
  8
1_0
  70
1
  66
1
  0
VERTEX
  8
1_0
  10
299.5
  20
-739.5
  0
VERTEX
  8
1_0
  10
399.5
  20
-739.5
  0
VERTEX
  8
1_0
  10
399.5
  20
-639.5
  0
VERTEX
  8
1_0
  10
299.5
  20
-639.5
  0
VERTEX
  8
1_0
  10
299.5
  20
-739.5
  0
SEQEND
  0
POLYLINE
  8
1_0
  70
1
  66
1
  0
VERTEX
  8
1_0
  10
149.5
  20
-739.5
  0
VERTEX
  8
1_0
  10
249.5
  20
-739.5
  0
VERTEX
  8
1_0
  10
249.5
  20
-639.5
  0
VERTEX
  8
1_0
  10
149.5
  20
-639.5
  0
VERTEX
  8
1_0
  10
149.5
  20
-739.5
  0
SEQEND
  0
POLYLINE
  8
1_0
  70
1
  66
1
  0
VERTEX
  8
1_0
  10
-0.5
  20
-739.5
  0
VERTEX
  8
1_0
  10
99.5
  20
-739.5
  0
VERTEX
  8
1_0
  10
99.5
  20
-639.5
  0
VERTEX
  8
1_0
  10
-0.5
  20
-639.5
  0
VERTEX
  8
1_0
  10
-0.5
  20
-739.5
  0
SEQEND
  0
POLYLINE
  8
1_0
  70
1
  66
1
  0
VERTEX
  8
1_0
  10
-150.5
  20
-739.5
  0
VERTEX
  8
1_0
  10
-50.5
  20
-739.5
  0
VERTEX
  8
1_0
  10
-50.5
  20
-639.5
  0
VERTEX
  8
1_0
  10
-150.5
  20
-639.5
  0
VERTEX
  8
1_0
  10
-150.5
  20
-739.5
  0
SEQEND
  0
POLYLINE
  8
1_0
  70
1
  66
1
  0
VERTEX
  8
1_0
  10
-317.5
  20
-739.5
  0
VERTEX
  8
1_0
  10
-217.5
  20
-739.5
  0
VERTEX
  8
1_0
  10
-217.5
  20
-639.5
  0
VERTEX
  8
1_0
  10
-317.5
  20
-639.5
  0
VERTEX
  8
1_0
  10
-317.5
  20
-739.5
  0
SEQEND
  0
POLYLINE
  8
1_0
  70
1
  66
1
  0
VERTEX
  8
1_0
  10
-497
  20
-739.5
  0
VERTEX
  8
1_0
  10
-397
  20
-739.5
  0
VERTEX
  8
1_0
  10
-397
  20
-639.5
  0
VERTEX
  8
1_0
  10
-497
  20
-639.5
  0
VERTEX
  8
1_0
  10
-497
  20
-739.5
  0
SEQEND
  0
POLYLINE
  8
1_0
  70
1
  66
1
  0
VERTEX
  8
1_0
  10
-647
  20
-739.5
  0
VERTEX
  8
1_0
  10
-547
  20
-739.5
  0
VERTEX
  8
1_0
  10
-547
  20
-639.5
  0
VERTEX
  8
1_0
  10
-647
  20
-639.5
  0
VERTEX
  8
1_0
  10
-647
  20
-739.5
  0
SEQEND
  0
POLYLINE
  8
1_0
  70
1
  66
1
  0
VERTEX
  8
1_0
  10
149.5
  20
-739.5
  0
VERTEX
  8
1_0
  10
249.5
  20
-739.5
  0
VERTEX
  8
1_0
  10
249.5
  20
-639.5
  0
VERTEX
  8
1_0
  10
149.5
  20
-639.5
  0
VERTEX
  8
1_0
  10
149.5
  20
-739.5
  0
SEQEND
  0
POLYLINE
  8
1_0
  70
1
  66
1
  0
VERTEX
  8
1_0
  10
-647
  20
-739.5
  0
VERTEX
  8
1_0
  10
-547
  20
-739.5
  0
VERTEX
  8
1_0
  10
-547
  20
-639.5
  0
VERTEX
  8
1_0
  10
-647
  20
-639.5
  0
VERTEX
  8
1_0
  10
-647
  20
-739.5
  0
SEQEND
  0
POLYLINE
  8
1_0
  70
1
  66
1
  0
VERTEX
  8
1_0
  10
-850.5
  20
-983.5
  0
VERTEX
  8
1_0
  10
-752.5
  20
-983.5
  0
VERTEX
  8
1_0
  10
-752.5
  20
-885.5
  0
VERTEX
  8
1_0
  10
-850.5
  20
-885.5
  0
VERTEX
  8
1_0
  10
-850.5
  20
-983.5
  0
SEQEND
  0
POLYLINE
  8
1_0
  70
1
  66
1
  0
VERTEX
  8
1_0
  10
-850.5
  20
-1327.5
  0
VERTEX
  8
1_0
  10
-752.5
  20
-1327.5
  0
VERTEX
  8
1_0
  10
-752.5
  20
-1229.5
  0
VERTEX
  8
1_0
  10
-850.5
  20
-1229.5
  0
VERTEX
  8
1_0
  10
-850.5
  20
-1327.5
  0
SEQEND
  0
POLYLINE
  8
1_0
  70
1
  66
1
  0
VERTEX
  8
1_0
  10
-755
  20
-737.5
  0
VERTEX
  8
1_0
  10
-657
  20
-737.5
  0
VERTEX
  8
1_0
  10
-657
  20
-639.5
  0
VERTEX
  8
1_0
  10
-755
  20
-639.5
  0
VERTEX
  8
1_0
  10
-755
  20
-737.5
  0
SEQEND
  0
POLYLINE
  8
1_0
  70
1
  66
1
  0
VERTEX
  8
1_0
  10
559.5
  20
-737.5
  0
VERTEX
  8
1_0
  10
657.5
  20
-737.5
  0
VERTEX
  8
1_0
  10
657.5
  20
-639.5
  0
VERTEX
  8
1_0
  10
559.5
  20
-639.5
  0
VERTEX
  8
1_0
  10
559.5
  20
-737.5
  0
SEQEND
  0
POLYLINE
  8
1_0
  70
1
  66
1
  0
VERTEX
  8
1_0
  10
1054.5
  20
-739.5
  0
VERTEX
  8
1_0
  10
1152.5
  20
-739.5
  0
VERTEX
  8
1_0
  10
1152.5
  20
-641.5
  0
VERTEX
  8
1_0
  10
1054.5
  20
-641.5
  0
VERTEX
  8
1_0
  10
1054.5
  20
-739.5
  0
SEQEND
  0
POLYLINE
  8
1_0
  70
1
  66
1
  0
VERTEX
  8
1_0
  10
-33.5
  20
-763
  0
VERTEX
  8
1_0
  10
-131.5
  20
-763
  0
VERTEX
  8
1_0
  10
-131.5
  20
-861
  0
VERTEX
  8
1_0
  10
-33.5
  20
-861
  0
VERTEX
  8
1_0
  10
-33.5
  20
-763
  0
SEQEND
  0
POLYLINE
  8
1_0
  70
1
  66
1
  0
VERTEX
  8
1_0
  10
-274.5
  20
-763
  0
VERTEX
  8
1_0
  10
-372.5
  20
-763
  0
VERTEX
  8
1_0
  10
-372.5
  20
-861
  0
VERTEX
  8
1_0
  10
-274.5
  20
-861
  0
VERTEX
  8
1_0
  10
-274.5
  20
-763
  0
SEQEND
  0
POLYLINE
  8
1_0
  70
1
  66
1
  0
VERTEX
  8
1_0
  10
1531.5
  20
-1229
  0
VERTEX
  8
1_0
  10
1433.5
  20
-1229
  0
VERTEX
  8
1_0
  10
1433.5
  20
-1327
  0
VERTEX
  8
1_0
  10
1531.5
  20
-1327
  0
VERTEX
  8
1_0
  10
1531.5
  20
-1229
  0
SEQEND
  0
POLYLINE
  8
1_0
  70
1
  66
1
  0
VERTEX
  8
1_0
  10
1531.5
  20
-885
  0
VERTEX
  8
1_0
  10
1433.5
  20
-885
  0
VERTEX
  8
1_0
  10
1433.5
  20
-983
  0
VERTEX
  8
1_0
  10
1531.5
  20
-983
  0
VERTEX
  8
1_0
  10
1531.5
  20
-885
  0
SEQEND
  0
POLYLINE
  8
1_0
  70
1
  66
1
  0
VERTEX
  8
1_0
  10
-516
  20
-801
  0
VERTEX
  8
1_0
  10
-614
  20
-801
  0
VERTEX
  8
1_0
  10
-614
  20
-899
  0
VERTEX
  8
1_0
  10
-516
  20
-899
  0
VERTEX
  8
1_0
  10
-516
  20
-801
  0
SEQEND
  0
POLYLINE
  8
1_0
  70
1
  66
1
  0
VERTEX
  8
1_0
  10
450.5
  20
-738.5
  0
VERTEX
  8
1_0
  10
548.5
  20
-738.5
  0
VERTEX
  8
1_0
  10
548.5
  20
-640.5
  0
VERTEX
  8
1_0
  10
450.5
  20
-640.5
  0
VERTEX
  8
1_0
  10
450.5
  20
-738.5
  0
SEQEND
  0
POLYLINE
  8
1_0
  70
1
  66
1
  0
VERTEX
  8
1_0
  10
300.5
  20
-738.5
  0
VERTEX
  8
1_0
  10
398.5
  20
-738.5
  0
VERTEX
  8
1_0
  10
398.5
  20
-640.5
  0
VERTEX
  8
1_0
  10
300.5
  20
-640.5
  0
VERTEX
  8
1_0
  10
300.5
  20
-738.5
  0
SEQEND
  0
POLYLINE
  8
1_0
  70
1
  66
1
  0
VERTEX
  8
1_0
  10
150.5
  20
-738.5
  0
VERTEX
  8
1_0
  10
248.5
  20
-738.5
  0
VERTEX
  8
1_0
  10
248.5
  20
-640.5
  0
VERTEX
  8
1_0
  10
150.5
  20
-640.5
  0
VERTEX
  8
1_0
  10
150.5
  20
-738.5
  0
SEQEND
  0
POLYLINE
  8
1_0
  70
1
  66
1
  0
VERTEX
  8
1_0
  10
0.5
  20
-738.5
  0
VERTEX
  8
1_0
  10
98.5
  20
-738.5
  0
VERTEX
  8
1_0
  10
98.5
  20
-640.5
  0
VERTEX
  8
1_0
  10
0.5
  20
-640.5
  0
VERTEX
  8
1_0
  10
0.5
  20
-738.5
  0
SEQEND
  0
POLYLINE
  8
1_0
  70
1
  66
1
  0
VERTEX
  8
1_0
  10
-149.5
  20
-738.5
  0
VERTEX
  8
1_0
  10
-51.5
  20
-738.5
  0
VERTEX
  8
1_0
  10
-51.5
  20
-640.5
  0
VERTEX
  8
1_0
  10
-149.5
  20
-640.5
  0
VERTEX
  8
1_0
  10
-149.5
  20
-738.5
  0
SEQEND
  0
POLYLINE
  8
1_0
  70
1
  66
1
  0
VERTEX
  8
1_0
  10
-496
  20
-738.5
  0
VERTEX
  8
1_0
  10
-398
  20
-738.5
  0
VERTEX
  8
1_0
  10
-398
  20
-640.5
  0
VERTEX
  8
1_0
  10
-496
  20
-640.5
  0
VERTEX
  8
1_0
  10
-496
  20
-738.5
  0
SEQEND
  0
POLYLINE
  8
1_0
  70
1
  66
1
  0
VERTEX
  8
1_0
  10
-316.5
  20
-738.5
  0
VERTEX
  8
1_0
  10
-218.5
  20
-738.5
  0
VERTEX
  8
1_0
  10
-218.5
  20
-640.5
  0
VERTEX
  8
1_0
  10
-316.5
  20
-640.5
  0
VERTEX
  8
1_0
  10
-316.5
  20
-738.5
  0
SEQEND
  0
POLYLINE
  8
1_0
  70
1
  66
1
  0
VERTEX
  8
1_0
  10
-646
  20
-738.5
  0
VERTEX
  8
1_0
  10
-548
  20
-738.5
  0
VERTEX
  8
1_0
  10
-548
  20
-640.5
  0
VERTEX
  8
1_0
  10
-646
  20
-640.5
  0
VERTEX
  8
1_0
  10
-646
  20
-738.5
  0
SEQEND
  0
POLYLINE
  8
1_0
  70
1
  66
1
  0
VERTEX
  8
1_0
  10
-850.5
  20
-983.5
  0
VERTEX
  8
1_0
  10
-752.5
  20
-983.5
  0
VERTEX
  8
1_0
  10
-752.5
  20
-885.5
  0
VERTEX
  8
1_0
  10
-850.5
  20
-885.5
  0
VERTEX
  8
1_0
  10
-850.5
  20
-983.5
  0
SEQEND
  0
POLYLINE
  8
1_0
  70
1
  66
1
  0
VERTEX
  8
1_0
  10
-850.5
  20
-1327.5
  0
VERTEX
  8
1_0
  10
-752.5
  20
-1327.5
  0
VERTEX
  8
1_0
  10
-752.5
  20
-1229.5
  0
VERTEX
  8
1_0
  10
-850.5
  20
-1229.5
  0
VERTEX
  8
1_0
  10
-850.5
  20
-1327.5
  0
SEQEND
  0
POLYLINE
  8
1_0
  70
1
  66
1
  0
VERTEX
  8
1_0
  10
-755
  20
-737.5
  0
VERTEX
  8
1_0
  10
-657
  20
-737.5
  0
VERTEX
  8
1_0
  10
-657
  20
-639.5
  0
VERTEX
  8
1_0
  10
-755
  20
-639.5
  0
VERTEX
  8
1_0
  10
-755
  20
-737.5
  0
SEQEND
  0
POLYLINE
  8
1_0
  70
1
  66
1
  0
VERTEX
  8
1_0
  10
559.5
  20
-737.5
  0
VERTEX
  8
1_0
  10
657.5
  20
-737.5
  0
VERTEX
  8
1_0
  10
657.5
  20
-639.5
  0
VERTEX
  8
1_0
  10
559.5
  20
-639.5
  0
VERTEX
  8
1_0
  10
559.5
  20
-737.5
  0
SEQEND
  0
POLYLINE
  8
1_0
  70
1
  66
1
  0
VERTEX
  8
1_0
  10
1054.5
  20
-739.5
  0
VERTEX
  8
1_0
  10
1152.5
  20
-739.5
  0
VERTEX
  8
1_0
  10
1152.5
  20
-641.5
  0
VERTEX
  8
1_0
  10
1054.5
  20
-641.5
  0
VERTEX
  8
1_0
  10
1054.5
  20
-739.5
  0
SEQEND
  0
POLYLINE
  8
1_0
  70
1
  66
1
  0
VERTEX
  8
1_0
  10
-33.5
  20
-763
  0
VERTEX
  8
1_0
  10
-131.5
  20
-763
  0
VERTEX
  8
1_0
  10
-131.5
  20
-861
  0
VERTEX
  8
1_0
  10
-33.5
  20
-861
  0
VERTEX
  8
1_0
  10
-33.5
  20
-763
  0
SEQEND
  0
POLYLINE
  8
1_0
  70
1
  66
1
  0
VERTEX
  8
1_0
  10
-274.5
  20
-763
  0
VERTEX
  8
1_0
  10
-372.5
  20
-763
  0
VERTEX
  8
1_0
  10
-372.5
  20
-861
  0
VERTEX
  8
1_0
  10
-274.5
  20
-861
  0
VERTEX
  8
1_0
  10
-274.5
  20
-763
  0
SEQEND
  0
POLYLINE
  8
1_0
  70
1
  66
1
  0
VERTEX
  8
1_0
  10
1531.5
  20
-1229
  0
VERTEX
  8
1_0
  10
1433.5
  20
-1229
  0
VERTEX
  8
1_0
  10
1433.5
  20
-1327
  0
VERTEX
  8
1_0
  10
1531.5
  20
-1327
  0
VERTEX
  8
1_0
  10
1531.5
  20
-1229
  0
SEQEND
  0
POLYLINE
  8
1_0
  70
1
  66
1
  0
VERTEX
  8
1_0
  10
1531.5
  20
-885
  0
VERTEX
  8
1_0
  10
1433.5
  20
-885
  0
VERTEX
  8
1_0
  10
1433.5
  20
-983
  0
VERTEX
  8
1_0
  10
1531.5
  20
-983
  0
VERTEX
  8
1_0
  10
1531.5
  20
-885
  0
SEQEND
  0
POLYLINE
  8
1_0
  70
1
  66
1
  0
VERTEX
  8
1_0
  10
-516
  20
-801
  0
VERTEX
  8
1_0
  10
-614
  20
-801
  0
VERTEX
  8
1_0
  10
-614
  20
-899
  0
VERTEX
  8
1_0
  10
-516
  20
-899
  0
VERTEX
  8
1_0
  10
-516
  20
-801
  0
SEQEND
  0
POLYLINE
  8
1_0
  70
1
  66
1
  0
VERTEX
  8
1_0
  10
-849.5
  20
-982.5
  0
VERTEX
  8
1_0
  10
-753.5
  20
-982.5
  0
VERTEX
  8
1_0
  10
-753.5
  20
-886.5
  0
VERTEX
  8
1_0
  10
-849.5
  20
-886.5
  0
VERTEX
  8
1_0
  10
-849.5
  20
-982.5
  0
SEQEND
  0
POLYLINE
  8
1_0
  70
1
  66
1
  0
VERTEX
  8
1_0
  10
-849.5
  20
-1326.5
  0
VERTEX
  8
1_0
  10
-753.5
  20
-1326.5
  0
VERTEX
  8
1_0
  10
-753.5
  20
-1230.5
  0
VERTEX
  8
1_0
  10
-849.5
  20
-1230.5
  0
VERTEX
  8
1_0
  10
-849.5
  20
-1326.5
  0
SEQEND
  0
POLYLINE
  8
1_0
  70
1
  66
1
  0
VERTEX
  8
1_0
  10
-754
  20
-736.5
  0
VERTEX
  8
1_0
  10
-658
  20
-736.5
  0
VERTEX
  8
1_0
  10
-658
  20
-640.5
  0
VERTEX
  8
1_0
  10
-754
  20
-640.5
  0
VERTEX
  8
1_0
  10
-754
  20
-736.5
  0
SEQEND
  0
POLYLINE
  8
1_0
  70
1
  66
1
  0
VERTEX
  8
1_0
  10
560.5
  20
-736.5
  0
VERTEX
  8
1_0
  10
656.5
  20
-736.5
  0
VERTEX
  8
1_0
  10
656.5
  20
-640.5
  0
VERTEX
  8
1_0
  10
560.5
  20
-640.5
  0
VERTEX
  8
1_0
  10
560.5
  20
-736.5
  0
SEQEND
  0
POLYLINE
  8
1_0
  70
1
  66
1
  0
VERTEX
  8
1_0
  10
1055.5
  20
-738.5
  0
VERTEX
  8
1_0
  10
1151.5
  20
-738.5
  0
VERTEX
  8
1_0
  10
1151.5
  20
-642.5
  0
VERTEX
  8
1_0
  10
1055.5
  20
-642.5
  0
VERTEX
  8
1_0
  10
1055.5
  20
-738.5
  0
SEQEND
  0
POLYLINE
  8
1_0
  70
1
  66
1
  0
VERTEX
  8
1_0
  10
-34.5
  20
-764
  0
VERTEX
  8
1_0
  10
-130.5
  20
-764
  0
VERTEX
  8
1_0
  10
-130.5
  20
-860
  0
VERTEX
  8
1_0
  10
-34.5
  20
-860
  0
VERTEX
  8
1_0
  10
-34.5
  20
-764
  0
SEQEND
  0
POLYLINE
  8
1_0
  70
1
  66
1
  0
VERTEX
  8
1_0
  10
-275.5
  20
-764
  0
VERTEX
  8
1_0
  10
-371.5
  20
-764
  0
VERTEX
  8
1_0
  10
-371.5
  20
-860
  0
VERTEX
  8
1_0
  10
-275.5
  20
-860
  0
VERTEX
  8
1_0
  10
-275.5
  20
-764
  0
SEQEND
  0
POLYLINE
  8
1_0
  70
1
  66
1
  0
VERTEX
  8
1_0
  10
1530.5
  20
-1230
  0
VERTEX
  8
1_0
  10
1434.5
  20
-1230
  0
VERTEX
  8
1_0
  10
1434.5
  20
-1326
  0
VERTEX
  8
1_0
  10
1530.5
  20
-1326
  0
VERTEX
  8
1_0
  10
1530.5
  20
-1230
  0
SEQEND
  0
POLYLINE
  8
1_0
  70
1
  66
1
  0
VERTEX
  8
1_0
  10
1530.5
  20
-886
  0
VERTEX
  8
1_0
  10
1434.5
  20
-886
  0
VERTEX
  8
1_0
  10
1434.5
  20
-982
  0
VERTEX
  8
1_0
  10
1530.5
  20
-982
  0
VERTEX
  8
1_0
  10
1530.5
  20
-886
  0
SEQEND
  0
POLYLINE
  8
1_0
  70
1
  66
1
  0
VERTEX
  8
1_0
  10
-517
  20
-802
  0
VERTEX
  8
1_0
  10
-613
  20
-802
  0
VERTEX
  8
1_0
  10
-613
  20
-898
  0
VERTEX
  8
1_0
  10
-517
  20
-898
  0
VERTEX
  8
1_0
  10
-517
  20
-802
  0
SEQEND
  0
POLYLINE
  8
1_0
  70
1
  66
1
  0
VERTEX
  8
1_0
  10
-834
  20
-737.5
  0
VERTEX
  8
1_0
  10
-747
  20
-737.5
  0
VERTEX
  8
1_0
  10
-747
  20
-639.5
  0
VERTEX
  8
1_0
  10
-834
  20
-639.5
  0
VERTEX
  8
1_0
  10
-834
  20
-737.5
  0
SEQEND
  0
POLYLINE
  8
1_0
  70
1
  66
1
  0
VERTEX
  8
1_0
  10
-834
  20
-737.5
  0
VERTEX
  8
1_0
  10
-747
  20
-737.5
  0
VERTEX
  8
1_0
  10
-747
  20
-639.5
  0
VERTEX
  8
1_0
  10
-834
  20
-639.5
  0
VERTEX
  8
1_0
  10
-834
  20
-737.5
  0
SEQEND
  0
POLYLINE
  8
1_0
  70
1
  66
1
  0
VERTEX
  8
1_0
  10
-833
  20
-736.5
  0
VERTEX
  8
1_0
  10
-748
  20
-736.5
  0
VERTEX
  8
1_0
  10
-748
  20
-640.5
  0
VERTEX
  8
1_0
  10
-833
  20
-640.5
  0
VERTEX
  8
1_0
  10
-833
  20
-736.5
  0
SEQEND
  0
POLYLINE
  8
1_0
  70
1
  66
1
  0
VERTEX
  8
1_0
  10
-845.5
  20
-978.5
  0
VERTEX
  8
1_0
  10
-757.5
  20
-978.5
  0
VERTEX
  8
1_0
  10
-757.5
  20
-890.5
  0
VERTEX
  8
1_0
  10
-845.5
  20
-890.5
  0
VERTEX
  8
1_0
  10
-845.5
  20
-978.5
  0
SEQEND
  0
POLYLINE
  8
1_0
  70
1
  66
1
  0
VERTEX
  8
1_0
  10
-845.5
  20
-1322.5
  0
VERTEX
  8
1_0
  10
-757.5
  20
-1322.5
  0
VERTEX
  8
1_0
  10
-757.5
  20
-1234.5
  0
VERTEX
  8
1_0
  10
-845.5
  20
-1234.5
  0
VERTEX
  8
1_0
  10
-845.5
  20
-1322.5
  0
SEQEND
  0
POLYLINE
  8
1_0
  70
1
  66
1
  0
VERTEX
  8
1_0
  10
-750
  20
-732.5
  0
VERTEX
  8
1_0
  10
-662
  20
-732.5
  0
VERTEX
  8
1_0
  10
-662
  20
-644.5
  0
VERTEX
  8
1_0
  10
-750
  20
-644.5
  0
VERTEX
  8
1_0
  10
-750
  20
-732.5
  0
SEQEND
  0
POLYLINE
  8
1_0
  70
1
  66
1
  0
VERTEX
  8
1_0
  10
564.5
  20
-732.5
  0
VERTEX
  8
1_0
  10
652.5
  20
-732.5
  0
VERTEX
  8
1_0
  10
652.5
  20
-644.5
  0
VERTEX
  8
1_0
  10
564.5
  20
-644.5
  0
VERTEX
  8
1_0
  10
564.5
  20
-732.5
  0
SEQEND
  0
POLYLINE
  8
1_0
  70
1
  66
1
  0
VERTEX
  8
1_0
  10
1059.5
  20
-734.5
  0
VERTEX
  8
1_0
  10
1147.5
  20
-734.5
  0
VERTEX
  8
1_0
  10
1147.5
  20
-646.5
  0
VERTEX
  8
1_0
  10
1059.5
  20
-646.5
  0
VERTEX
  8
1_0
  10
1059.5
  20
-734.5
  0
SEQEND
  0
POLYLINE
  8
1_0
  70
1
  66
1
  0
VERTEX
  8
1_0
  10
-38.5
  20
-768
  0
VERTEX
  8
1_0
  10
-126.5
  20
-768
  0
VERTEX
  8
1_0
  10
-126.5
  20
-856
  0
VERTEX
  8
1_0
  10
-38.5
  20
-856
  0
VERTEX
  8
1_0
  10
-38.5
  20
-768
  0
SEQEND
  0
POLYLINE
  8
1_0
  70
1
  66
1
  0
VERTEX
  8
1_0
  10
-279.5
  20
-768
  0
VERTEX
  8
1_0
  10
-367.5
  20
-768
  0
VERTEX
  8
1_0
  10
-367.5
  20
-856
  0
VERTEX
  8
1_0
  10
-279.5
  20
-856
  0
VERTEX
  8
1_0
  10
-279.5
  20
-768
  0
SEQEND
  0
POLYLINE
  8
1_0
  70
1
  66
1
  0
VERTEX
  8
1_0
  10
1526.5
  20
-1234
  0
VERTEX
  8
1_0
  10
1438.5
  20
-1234
  0
VERTEX
  8
1_0
  10
1438.5
  20
-1322
  0
VERTEX
  8
1_0
  10
1526.5
  20
-1322
  0
VERTEX
  8
1_0
  10
1526.5
  20
-1234
  0
SEQEND
  0
POLYLINE
  8
1_0
  70
1
  66
1
  0
VERTEX
  8
1_0
  10
1526.5
  20
-890
  0
VERTEX
  8
1_0
  10
1438.5
  20
-890
  0
VERTEX
  8
1_0
  10
1438.5
  20
-978
  0
VERTEX
  8
1_0
  10
1526.5
  20
-978
  0
VERTEX
  8
1_0
  10
1526.5
  20
-890
  0
SEQEND
  0
POLYLINE
  8
1_0
  70
1
  66
1
  0
VERTEX
  8
1_0
  10
-521
  20
-806
  0
VERTEX
  8
1_0
  10
-609
  20
-806
  0
VERTEX
  8
1_0
  10
-609
  20
-894
  0
VERTEX
  8
1_0
  10
-521
  20
-894
  0
VERTEX
  8
1_0
  10
-521
  20
-806
  0
SEQEND
  0
POLYLINE
  8
1_0
  70
1
  66
1
  0
VERTEX
  8
1_0
  10
-886.5
  20
-1304.5
  0
VERTEX
  8
1_0
  10
-834.5
  20
-1304.5
  0
VERTEX
  8
1_0
  10
-834.5
  20
-1186.5
  0
VERTEX
  8
1_0
  10
-886.5
  20
-1186.5
  0
VERTEX
  8
1_0
  10
-886.5
  20
-1304.5
  0
SEQEND
  0
POLYLINE
  8
1_0
  70
1
  66
1
  0
VERTEX
  8
1_0
  10
-886.5
  20
-1026.5
  0
VERTEX
  8
1_0
  10
-834.5
  20
-1026.5
  0
VERTEX
  8
1_0
  10
-834.5
  20
-908.5
  0
VERTEX
  8
1_0
  10
-886.5
  20
-908.5
  0
VERTEX
  8
1_0
  10
-886.5
  20
-1026.5
  0
SEQEND
  0
POLYLINE
  8
1_0
  70
1
  66
1
  0
VERTEX
  8
1_0
  10
1563.5
  20
-908
  0
VERTEX
  8
1_0
  10
1511.5
  20
-908
  0
VERTEX
  8
1_0
  10
1511.5
  20
-1026
  0
VERTEX
  8
1_0
  10
1563.5
  20
-1026
  0
VERTEX
  8
1_0
  10
1563.5
  20
-908
  0
SEQEND
  0
POLYLINE
  8
1_0
  70
1
  66
1
  0
VERTEX
  8
1_0
  10
1563.5
  20
-1186
  0
VERTEX
  8
1_0
  10
1511.5
  20
-1186
  0
VERTEX
  8
1_0
  10
1511.5
  20
-1304
  0
VERTEX
  8
1_0
  10
1563.5
  20
-1304
  0
VERTEX
  8
1_0
  10
1563.5
  20
-1186
  0
SEQEND
  0
POLYLINE
  8
1_0
  70
1
  66
1
  0
VERTEX
  8
1_0
  10
-196
  20
-767
  0
VERTEX
  8
1_0
  10
-196
  20
-876
  0
VERTEX
  8
1_0
  10
-135.5
  20
-876
  0
VERTEX
  8
1_0
  10
-135.5
  20
-767
  0
VERTEX
  8
1_0
  10
-196
  20
-767
  0
SEQEND
  0
POLYLINE
  8
1_0
  70
1
  66
1
  0
VERTEX
  8
1_0
  10
-437
  20
-759
  0
VERTEX
  8
1_0
  10
-437
  20
-868
  0
VERTEX
  8
1_0
  10
-376.5
  20
-868
  0
VERTEX
  8
1_0
  10
-376.5
  20
-759
  0
VERTEX
  8
1_0
  10
-437
  20
-759
  0
SEQEND
  0
POLYLINE
  8
1_0
  70
1
  66
1
  0
VERTEX
  8
1_0
  10
-678.5
  20
-808
  0
VERTEX
  8
1_0
  10
-678.5
  20
-917
  0
VERTEX
  8
1_0
  10
-618
  20
-917
  0
VERTEX
  8
1_0
  10
-618
  20
-808
  0
VERTEX
  8
1_0
  10
-678.5
  20
-808
  0
SEQEND
  0
POLYLINE
  8
1_0
  70
1
  66
1
  0
VERTEX
  8
1_0
  10
-196
  20
-767
  0
VERTEX
  8
1_0
  10
-196
  20
-876
  0
VERTEX
  8
1_0
  10
-135.5
  20
-876
  0
VERTEX
  8
1_0
  10
-135.5
  20
-767
  0
VERTEX
  8
1_0
  10
-196
  20
-767
  0
SEQEND
  0
POLYLINE
  8
1_0
  70
1
  66
1
  0
VERTEX
  8
1_0
  10
-437
  20
-759
  0
VERTEX
  8
1_0
  10
-437
  20
-868
  0
VERTEX
  8
1_0
  10
-376.5
  20
-868
  0
VERTEX
  8
1_0
  10
-376.5
  20
-759
  0
VERTEX
  8
1_0
  10
-437
  20
-759
  0
SEQEND
  0
POLYLINE
  8
1_0
  70
1
  66
1
  0
VERTEX
  8
1_0
  10
-678.5
  20
-808
  0
VERTEX
  8
1_0
  10
-678.5
  20
-917
  0
VERTEX
  8
1_0
  10
-618
  20
-917
  0
VERTEX
  8
1_0
  10
-618
  20
-808
  0
VERTEX
  8
1_0
  10
-678.5
  20
-808
  0
SEQEND
  0
POLYLINE
  8
1_0
  70
1
  66
1
  0
VERTEX
  8
1_0
  10
-196
  20
-767
  0
VERTEX
  8
1_0
  10
-196
  20
-876
  0
VERTEX
  8
1_0
  10
-135.5
  20
-876
  0
VERTEX
  8
1_0
  10
-135.5
  20
-767
  0
VERTEX
  8
1_0
  10
-196
  20
-767
  0
SEQEND
  0
POLYLINE
  8
1_0
  70
1
  66
1
  0
VERTEX
  8
1_0
  10
-437
  20
-759
  0
VERTEX
  8
1_0
  10
-437
  20
-868
  0
VERTEX
  8
1_0
  10
-376.5
  20
-868
  0
VERTEX
  8
1_0
  10
-376.5
  20
-759
  0
VERTEX
  8
1_0
  10
-437
  20
-759
  0
SEQEND
  0
POLYLINE
  8
1_0
  70
1
  66
1
  0
VERTEX
  8
1_0
  10
-678.5
  20
-808
  0
VERTEX
  8
1_0
  10
-678.5
  20
-917
  0
VERTEX
  8
1_0
  10
-618
  20
-917
  0
VERTEX
  8
1_0
  10
-618
  20
-808
  0
VERTEX
  8
1_0
  10
-678.5
  20
-808
  0
SEQEND
  0
POLYLINE
  8
1_0
  70
1
  66
1
  0
VERTEX
  8
1_0
  10
-765
  20
-739.5
  0
VERTEX
  8
1_0
  10
-765
  20
-824.5
  0
VERTEX
  8
1_0
  10
-681
  20
-824.5
  0
VERTEX
  8
1_0
  10
-681
  20
-739.5
  0
VERTEX
  8
1_0
  10
-765
  20
-739.5
  0
SEQEND
  0
POLYLINE
  8
1_0
  70
1
  66
1
  0
VERTEX
  8
1_0
  10
-838
  20
-739.5
  0
VERTEX
  8
1_0
  10
-838
  20
-824.5
  0
VERTEX
  8
1_0
  10
-754
  20
-824.5
  0
VERTEX
  8
1_0
  10
-754
  20
-739.5
  0
VERTEX
  8
1_0
  10
-838
  20
-739.5
  0
SEQEND
  0
POLYLINE
  8
1_0
  70
1
  66
1
  0
VERTEX
  8
1_0
  10
-765
  20
-739.5
  0
VERTEX
  8
1_0
  10
-765
  20
-824.5
  0
VERTEX
  8
1_0
  10
-681
  20
-824.5
  0
VERTEX
  8
1_0
  10
-681
  20
-739.5
  0
VERTEX
  8
1_0
  10
-765
  20
-739.5
  0
SEQEND
  0
POLYLINE
  8
1_0
  70
1
  66
1
  0
VERTEX
  8
1_0
  10
-838
  20
-739.5
  0
VERTEX
  8
1_0
  10
-838
  20
-824.5
  0
VERTEX
  8
1_0
  10
-754
  20
-824.5
  0
VERTEX
  8
1_0
  10
-754
  20
-739.5
  0
VERTEX
  8
1_0
  10
-838
  20
-739.5
  0
SEQEND
  0
POLYLINE
  8
1_0
  70
1
  66
1
  0
VERTEX
  8
1_0
  10
-765
  20
-739.5
  0
VERTEX
  8
1_0
  10
-765
  20
-824.5
  0
VERTEX
  8
1_0
  10
-681
  20
-824.5
  0
VERTEX
  8
1_0
  10
-681
  20
-739.5
  0
VERTEX
  8
1_0
  10
-765
  20
-739.5
  0
SEQEND
  0
POLYLINE
  8
1_0
  70
1
  66
1
  0
VERTEX
  8
1_0
  10
-838
  20
-739.5
  0
VERTEX
  8
1_0
  10
-838
  20
-824.5
  0
VERTEX
  8
1_0
  10
-754
  20
-824.5
  0
VERTEX
  8
1_0
  10
-754
  20
-739.5
  0
VERTEX
  8
1_0
  10
-838
  20
-739.5
  0
SEQEND
  0
POLYLINE
  8
1_0
  70
1
  66
1
  0
VERTEX
  8
1_0
  10
-885.5
  20
-1303.5
  0
VERTEX
  8
1_0
  10
-835.5
  20
-1303.5
  0
VERTEX
  8
1_0
  10
-835.5
  20
-1187.5
  0
VERTEX
  8
1_0
  10
-885.5
  20
-1187.5
  0
VERTEX
  8
1_0
  10
-885.5
  20
-1303.5
  0
SEQEND
  0
POLYLINE
  8
1_0
  70
1
  66
1
  0
VERTEX
  8
1_0
  10
-885.5
  20
-1025.5
  0
VERTEX
  8
1_0
  10
-835.5
  20
-1025.5
  0
VERTEX
  8
1_0
  10
-835.5
  20
-909.5
  0
VERTEX
  8
1_0
  10
-885.5
  20
-909.5
  0
VERTEX
  8
1_0
  10
-885.5
  20
-1025.5
  0
SEQEND
  0
POLYLINE
  8
1_0
  70
1
  66
1
  0
VERTEX
  8
1_0
  10
1562.5
  20
-909
  0
VERTEX
  8
1_0
  10
1512.5
  20
-909
  0
VERTEX
  8
1_0
  10
1512.5
  20
-1025
  0
VERTEX
  8
1_0
  10
1562.5
  20
-1025
  0
VERTEX
  8
1_0
  10
1562.5
  20
-909
  0
SEQEND
  0
POLYLINE
  8
1_0
  70
1
  66
1
  0
VERTEX
  8
1_0
  10
1562.5
  20
-1187
  0
VERTEX
  8
1_0
  10
1512.5
  20
-1187
  0
VERTEX
  8
1_0
  10
1512.5
  20
-1303
  0
VERTEX
  8
1_0
  10
1562.5
  20
-1303
  0
VERTEX
  8
1_0
  10
1562.5
  20
-1187
  0
SEQEND
  0
POLYLINE
  8
1_0
  70
1
  66
1
  0
VERTEX
  8
1_0
  10
-885.5
  20
-1303.5
  0
VERTEX
  8
1_0
  10
-835.5
  20
-1303.5
  0
VERTEX
  8
1_0
  10
-835.5
  20
-1187.5
  0
VERTEX
  8
1_0
  10
-885.5
  20
-1187.5
  0
VERTEX
  8
1_0
  10
-885.5
  20
-1303.5
  0
SEQEND
  0
POLYLINE
  8
1_0
  70
1
  66
1
  0
VERTEX
  8
1_0
  10
1562.5
  20
-909
  0
VERTEX
  8
1_0
  10
1512.5
  20
-909
  0
VERTEX
  8
1_0
  10
1512.5
  20
-1025
  0
VERTEX
  8
1_0
  10
1562.5
  20
-1025
  0
VERTEX
  8
1_0
  10
1562.5
  20
-909
  0
SEQEND
  0
POLYLINE
  8
1_0
  70
1
  66
1
  0
VERTEX
  8
1_0
  10
1562.5
  20
-1187
  0
VERTEX
  8
1_0
  10
1512.5
  20
-1187
  0
VERTEX
  8
1_0
  10
1512.5
  20
-1303
  0
VERTEX
  8
1_0
  10
1562.5
  20
-1303
  0
VERTEX
  8
1_0
  10
1562.5
  20
-1187
  0
SEQEND
  0
POLYLINE
  8
1_0
  70
1
  66
1
  0
VERTEX
  8
1_0
  10
-885.5
  20
-1025.5
  0
VERTEX
  8
1_0
  10
-835.5
  20
-1025.5
  0
VERTEX
  8
1_0
  10
-835.5
  20
-909.5
  0
VERTEX
  8
1_0
  10
-885.5
  20
-909.5
  0
VERTEX
  8
1_0
  10
-885.5
  20
-1025.5
  0
SEQEND
  0
POLYLINE
  8
1_0
  70
1
  66
1
  0
VERTEX
  8
1_0
  10
-378.5
  20
-754
  0
VERTEX
  8
1_0
  10
-236.5
  20
-754
  0
VERTEX
  8
1_0
  10
-236.5
  20
-748
  0
VERTEX
  8
1_0
  10
-384.5
  20
-748
  0
VERTEX
  8
1_0
  10
-384.5
  20
-762.5
  0
VERTEX
  8
1_0
  10
-378.5
  20
-762.5
  0
VERTEX
  8
1_0
  10
-378.5
  20
-754
  0
SEQEND
  0
POLYLINE
  8
1_0
  70
1
  66
1
  0
VERTEX
  8
1_0
  10
-884.5
  20
-1302.5
  0
VERTEX
  8
1_0
  10
-836.5
  20
-1302.5
  0
VERTEX
  8
1_0
  10
-836.5
  20
-1188.5
  0
VERTEX
  8
1_0
  10
-884.5
  20
-1188.5
  0
VERTEX
  8
1_0
  10
-884.5
  20
-1302.5
  0
SEQEND
  0
POLYLINE
  8
1_0
  70
1
  66
1
  0
VERTEX
  8
1_0
  10
-884.5
  20
-1024.5
  0
VERTEX
  8
1_0
  10
-836.5
  20
-1024.5
  0
VERTEX
  8
1_0
  10
-836.5
  20
-910.5
  0
VERTEX
  8
1_0
  10
-884.5
  20
-910.5
  0
VERTEX
  8
1_0
  10
-884.5
  20
-1024.5
  0
SEQEND
  0
POLYLINE
  8
1_0
  70
1
  66
1
  0
VERTEX
  8
1_0
  10
1561.5
  20
-910
  0
VERTEX
  8
1_0
  10
1513.5
  20
-910
  0
VERTEX
  8
1_0
  10
1513.5
  20
-1024
  0
VERTEX
  8
1_0
  10
1561.5
  20
-1024
  0
VERTEX
  8
1_0
  10
1561.5
  20
-910
  0
SEQEND
  0
POLYLINE
  8
1_0
  70
1
  66
1
  0
VERTEX
  8
1_0
  10
1561.5
  20
-1188
  0
VERTEX
  8
1_0
  10
1513.5
  20
-1188
  0
VERTEX
  8
1_0
  10
1513.5
  20
-1302
  0
VERTEX
  8
1_0
  10
1561.5
  20
-1302
  0
VERTEX
  8
1_0
  10
1561.5
  20
-1188
  0
SEQEND
  0
POLYLINE
  8
1_0
  70
1
  66
1
  0
VERTEX
  8
1_0
  10
-194
  20
-769
  0
VERTEX
  8
1_0
  10
-194
  20
-874
  0
VERTEX
  8
1_0
  10
-137.5
  20
-874
  0
VERTEX
  8
1_0
  10
-137.5
  20
-769
  0
VERTEX
  8
1_0
  10
-194
  20
-769
  0
SEQEND
  0
POLYLINE
  8
1_0
  70
1
  66
1
  0
VERTEX
  8
1_0
  10
-435
  20
-761
  0
VERTEX
  8
1_0
  10
-435
  20
-866
  0
VERTEX
  8
1_0
  10
-378.5
  20
-866
  0
VERTEX
  8
1_0
  10
-378.5
  20
-761
  0
VERTEX
  8
1_0
  10
-435
  20
-761
  0
SEQEND
  0
POLYLINE
  8
1_0
  70
1
  66
1
  0
VERTEX
  8
1_0
  10
-676.5
  20
-810
  0
VERTEX
  8
1_0
  10
-676.5
  20
-915
  0
VERTEX
  8
1_0
  10
-620
  20
-915
  0
VERTEX
  8
1_0
  10
-620
  20
-810
  0
VERTEX
  8
1_0
  10
-676.5
  20
-810
  0
SEQEND
  0
POLYLINE
  8
1_0
  70
1
  66
1
  0
VERTEX
  8
1_0
  10
-763
  20
-741.5
  0
VERTEX
  8
1_0
  10
-763
  20
-822.5
  0
VERTEX
  8
1_0
  10
-683
  20
-822.5
  0
VERTEX
  8
1_0
  10
-683
  20
-741.5
  0
VERTEX
  8
1_0
  10
-763
  20
-741.5
  0
SEQEND
  0
POLYLINE
  8
1_0
  70
1
  66
1
  0
VERTEX
  8
1_0
  10
-836
  20
-741.5
  0
VERTEX
  8
1_0
  10
-836
  20
-822.5
  0
VERTEX
  8
1_0
  10
-756
  20
-822.5
  0
VERTEX
  8
1_0
  10
-756
  20
-741.5
  0
VERTEX
  8
1_0
  10
-836
  20
-741.5
  0
SEQEND
  0
POLYLINE
  8
1_0
  70
1
  66
1
  0
VERTEX
  8
1_0
  10
-838
  20
-739.5
  0
VERTEX
  8
1_0
  10
-681
  20
-739.5
  0
VERTEX
  8
1_0
  10
-681
  20
-737.5
  0
VERTEX
  8
1_0
  10
-838
  20
-737.5
  0
VERTEX
  8
1_0
  10
-838
  20
-739.5
  0
SEQEND
  0
POLYLINE
  8
1_0
  70
1
  66
1
  0
VERTEX
  8
1_0
  10
-761
  20
-743.5
  0
VERTEX
  8
1_0
  10
-761
  20
-820.5
  0
VERTEX
  8
1_0
  10
-685
  20
-820.5
  0
VERTEX
  8
1_0
  10
-685
  20
-743.5
  0
VERTEX
  8
1_0
  10
-761
  20
-743.5
  0
SEQEND
  0
POLYLINE
  8
1_0
  70
1
  66
1
  0
VERTEX
  8
1_0
  10
-834
  20
-743.5
  0
VERTEX
  8
1_0
  10
-834
  20
-820.5
  0
VERTEX
  8
1_0
  10
-758
  20
-820.5
  0
VERTEX
  8
1_0
  10
-758
  20
-743.5
  0
VERTEX
  8
1_0
  10
-834
  20
-743.5
  0
SEQEND
  0
POLYLINE
  8
1_0
  70
1
  66
1
  0
VERTEX
  8
1_0
  10
-384.5
  20
-754
  0
VERTEX
  8
1_0
  10
-238
  20
-754
  0
VERTEX
  8
1_0
  10
-238
  20
-748
  0
VERTEX
  8
1_0
  10
-384.5
  20
-748
  0
VERTEX
  8
1_0
  10
-384.5
  20
-754
  0
SEQEND
  0
POLYLINE
  8
1_0
  70
1
  66
1
  0
VERTEX
  8
1_0
  10
-192
  20
-772
  0
VERTEX
  8
1_0
  10
-192
  20
-872
  0
VERTEX
  8
1_0
  10
-139.5
  20
-872
  0
VERTEX
  8
1_0
  10
-139.5
  20
-772
  0
VERTEX
  8
1_0
  10
-192
  20
-772
  0
SEQEND
  0
POLYLINE
  8
1_0
  70
1
  66
1
  0
VERTEX
  8
1_0
  10
-433
  20
-764
  0
VERTEX
  8
1_0
  10
-433
  20
-864
  0
VERTEX
  8
1_0
  10
-380.5
  20
-864
  0
VERTEX
  8
1_0
  10
-380.5
  20
-764
  0
VERTEX
  8
1_0
  10
-433
  20
-764
  0
SEQEND
  0
POLYLINE
  8
1_0
  70
1
  66
1
  0
VERTEX
  8
1_0
  10
-674.5
  20
-813
  0
VERTEX
  8
1_0
  10
-674.5
  20
-913
  0
VERTEX
  8
1_0
  10
-622
  20
-913
  0
VERTEX
  8
1_0
  10
-622
  20
-813
  0
VERTEX
  8
1_0
  10
-674.5
  20
-813
  0
SEQEND
  0
POLYLINE
  8
1_0
  70
1
  66
1
  0
VERTEX
  8
1_0
  10
-760
  20
-744.5
  0
VERTEX
  8
1_0
  10
-760
  20
-819.5
  0
VERTEX
  8
1_0
  10
-686
  20
-819.5
  0
VERTEX
  8
1_0
  10
-686
  20
-744.5
  0
VERTEX
  8
1_0
  10
-760
  20
-744.5
  0
SEQEND
  0
POLYLINE
  8
1_0
  70
1
  66
1
  0
VERTEX
  8
1_0
  10
-833
  20
-744.5
  0
VERTEX
  8
1_0
  10
-833
  20
-819.5
  0
VERTEX
  8
1_0
  10
-759
  20
-819.5
  0
VERTEX
  8
1_0
  10
-759
  20
-744.5
  0
VERTEX
  8
1_0
  10
-833
  20
-744.5
  0
SEQEND
  0
POLYLINE
  8
1_0
  70
1
  66
1
  0
VERTEX
  8
1_0
  10
-383.5
  20
-753
  0
VERTEX
  8
1_0
  10
-239
  20
-753
  0
VERTEX
  8
1_0
  10
-239
  20
-749
  0
VERTEX
  8
1_0
  10
-383.5
  20
-749
  0
VERTEX
  8
1_0
  10
-383.5
  20
-753
  0
SEQEND
  0
POLYLINE
  8
1_0
  70
1
  66
1
  0
VERTEX
  8
1_0
  10
-191
  20
-773
  0
VERTEX
  8
1_0
  10
-191
  20
-871
  0
VERTEX
  8
1_0
  10
-140.5
  20
-871
  0
VERTEX
  8
1_0
  10
-140.5
  20
-773
  0
VERTEX
  8
1_0
  10
-191
  20
-773
  0
SEQEND
  0
POLYLINE
  8
1_0
  70
1
  66
1
  0
VERTEX
  8
1_0
  10
-432
  20
-765
  0
VERTEX
  8
1_0
  10
-432
  20
-863
  0
VERTEX
  8
1_0
  10
-381.5
  20
-863
  0
VERTEX
  8
1_0
  10
-381.5
  20
-765
  0
VERTEX
  8
1_0
  10
-432
  20
-765
  0
SEQEND
  0
POLYLINE
  8
1_0
  70
1
  66
1
  0
VERTEX
  8
1_0
  10
-673.5
  20
-814
  0
VERTEX
  8
1_0
  10
-673.5
  20
-912
  0
VERTEX
  8
1_0
  10
-623
  20
-912
  0
VERTEX
  8
1_0
  10
-623
  20
-814
  0
VERTEX
  8
1_0
  10
-673.5
  20
-814
  0
SEQEND
  0
POLYLINE
  8
1_0
  70
1
  66
1
  0
VERTEX
  8
1_0
  10
1390
  20
-1125
  0
VERTEX
  8
1_0
  10
1496
  20
-1125
  0
VERTEX
  8
1_0
  10
1496
  20
-1088
  0
VERTEX
  8
1_0
  10
1390
  20
-1088
  0
VERTEX
  8
1_0
  10
1390
  20
-1125
  0
SEQEND
  0
POLYLINE
  8
1_0
  70
1
  66
1
  0
VERTEX
  8
1_0
  10
-691
  20
-768.5
  0
VERTEX
  8
1_0
  10
-573
  20
-768.5
  0
VERTEX
  8
1_0
  10
-573
  20
-748.5
  0
VERTEX
  8
1_0
  10
-691
  20
-748.5
  0
VERTEX
  8
1_0
  10
-691
  20
-768.5
  0
SEQEND
  0
POLYLINE
  8
1_0
  70
1
  66
1
  0
VERTEX
  8
1_0
  10
-148.5
  20
-754
  0
VERTEX
  8
1_0
  10
-18.5
  20
-754
  0
VERTEX
  8
1_0
  10
-18.5
  20
-748
  0
VERTEX
  8
1_0
  10
-148.5
  20
-748
  0
VERTEX
  8
1_0
  10
-148.5
  20
-754
  0
SEQEND
  0
POLYLINE
  8
1_0
  70
1
  66
1
  0
VERTEX
  8
1_0
  10
-148.5
  20
-754
  0
VERTEX
  8
1_0
  10
-18.5
  20
-754
  0
VERTEX
  8
1_0
  10
-18.5
  20
-748
  0
VERTEX
  8
1_0
  10
-148.5
  20
-748
  0
VERTEX
  8
1_0
  10
-148.5
  20
-754
  0
SEQEND
  0
POLYLINE
  8
1_0
  70
1
  66
1
  0
VERTEX
  8
1_0
  10
-568
  20
-768.5
  0
VERTEX
  8
1_0
  10
-568
  20
-758.5
  0
VERTEX
  8
1_0
  10
-487
  20
-758.5
  0
VERTEX
  8
1_0
  10
-487
  20
-727
  0
VERTEX
  8
1_0
  10
-497
  20
-727
  0
VERTEX
  8
1_0
  10
-497
  20
-748.5
  0
VERTEX
  8
1_0
  10
-578
  20
-748.5
  0
VERTEX
  8
1_0
  10
-578
  20
-768.5
  0
VERTEX
  8
1_0
  10
-568
  20
-768.5
  0
SEQEND
  0
POLYLINE
  8
1_0
  70
1
  66
1
  0
VERTEX
  8
1_0
  10
-147.5
  20
-753
  0
VERTEX
  8
1_0
  10
-19.5
  20
-753
  0
VERTEX
  8
1_0
  10
-19.5
  20
-749
  0
VERTEX
  8
1_0
  10
-147.5
  20
-749
  0
VERTEX
  8
1_0
  10
-147.5
  20
-753
  0
SEQEND
  0
POLYLINE
  8
1_0
  70
1
  66
1
  0
VERTEX
  8
1_0
  10
535
  20
-737.5
  0
VERTEX
  8
1_0
  10
568.5
  20
-737.5
  0
VERTEX
  8
1_0
  10
568.5
  20
-639.5
  0
VERTEX
  8
1_0
  10
535
  20
-639.5
  0
VERTEX
  8
1_0
  10
535
  20
-737.5
  0
SEQEND
  0
POLYLINE
  8
1_0
  70
1
  66
1
  0
VERTEX
  8
1_0
  10
535
  20
-737.5
  0
VERTEX
  8
1_0
  10
568.5
  20
-737.5
  0
VERTEX
  8
1_0
  10
568.5
  20
-639.5
  0
VERTEX
  8
1_0
  10
535
  20
-639.5
  0
VERTEX
  8
1_0
  10
535
  20
-737.5
  0
SEQEND
  0
POLYLINE
  8
1_0
  70
1
  66
1
  0
VERTEX
  8
1_0
  10
-661.5
  20
-737.5
  0
VERTEX
  8
1_0
  10
-629.5
  20
-737.5
  0
VERTEX
  8
1_0
  10
-629.5
  20
-639.5
  0
VERTEX
  8
1_0
  10
-661.5
  20
-639.5
  0
VERTEX
  8
1_0
  10
-661.5
  20
-737.5
  0
SEQEND
  0
POLYLINE
  8
1_0
  70
1
  66
1
  0
VERTEX
  8
1_0
  10
-661.5
  20
-737.5
  0
VERTEX
  8
1_0
  10
-629.5
  20
-737.5
  0
VERTEX
  8
1_0
  10
-629.5
  20
-639.5
  0
VERTEX
  8
1_0
  10
-661.5
  20
-639.5
  0
VERTEX
  8
1_0
  10
-661.5
  20
-737.5
  0
SEQEND
  0
POLYLINE
  8
1_0
  70
1
  66
1
  0
VERTEX
  8
1_0
  10
1405
  20
-1125
  0
VERTEX
  8
1_0
  10
1496
  20
-1125
  0
VERTEX
  8
1_0
  10
1496
  20
-1088
  0
VERTEX
  8
1_0
  10
1405
  20
-1088
  0
VERTEX
  8
1_0
  10
1405
  20
-1125
  0
SEQEND
  0
POLYLINE
  8
1_0
  70
1
  66
1
  0
VERTEX
  8
1_0
  10
536
  20
-736.5
  0
VERTEX
  8
1_0
  10
567.5
  20
-736.5
  0
VERTEX
  8
1_0
  10
567.5
  20
-640.5
  0
VERTEX
  8
1_0
  10
536
  20
-640.5
  0
VERTEX
  8
1_0
  10
536
  20
-736.5
  0
SEQEND
  0
POLYLINE
  8
1_0
  70
1
  66
1
  0
VERTEX
  8
1_0
  10
-660.5
  20
-736.5
  0
VERTEX
  8
1_0
  10
-630.5
  20
-736.5
  0
VERTEX
  8
1_0
  10
-630.5
  20
-640.5
  0
VERTEX
  8
1_0
  10
-660.5
  20
-640.5
  0
VERTEX
  8
1_0
  10
-660.5
  20
-736.5
  0
SEQEND
  0
POLYLINE
  8
1_0
  70
1
  66
1
  0
VERTEX
  8
1_0
  10
108
  20
-739.5
  0
VERTEX
  8
1_0
  10
143.5
  20
-739.5
  0
VERTEX
  8
1_0
  10
143.5
  20
-650
  0
VERTEX
  8
1_0
  10
108
  20
-650
  0
VERTEX
  8
1_0
  10
108
  20
-739.5
  0
SEQEND
  0
POLYLINE
  8
1_0
  70
1
  66
1
  0
VERTEX
  8
1_0
  10
1406
  20
-1124
  0
VERTEX
  8
1_0
  10
1495
  20
-1124
  0
VERTEX
  8
1_0
  10
1495
  20
-1089
  0
VERTEX
  8
1_0
  10
1406
  20
-1089
  0
VERTEX
  8
1_0
  10
1406
  20
-1124
  0
SEQEND
  0
POLYLINE
  8
1_0
  70
1
  66
1
  0
VERTEX
  8
1_0
  10
258
  20
-731.5
  0
VERTEX
  8
1_0
  10
292.5
  20
-731.5
  0
VERTEX
  8
1_0
  10
292.5
  20
-645.5
  0
VERTEX
  8
1_0
  10
258
  20
-645.5
  0
VERTEX
  8
1_0
  10
258
  20
-731.5
  0
SEQEND
  0
POLYLINE
  8
1_0
  70
1
  66
1
  0
VERTEX
  8
1_0
  10
-42.5
  20
-732
  0
VERTEX
  8
1_0
  10
-9
  20
-732
  0
VERTEX
  8
1_0
  10
-9
  20
-649
  0
VERTEX
  8
1_0
  10
-42.5
  20
-649
  0
VERTEX
  8
1_0
  10
-42.5
  20
-732
  0
SEQEND
  0
POLYLINE
  8
1_0
  70
1
  66
1
  0
VERTEX
  8
1_0
  10
408.5
  20
-732.5
  0
VERTEX
  8
1_0
  10
440
  20
-732.5
  0
VERTEX
  8
1_0
  10
440
  20
-648.5
  0
VERTEX
  8
1_0
  10
408.5
  20
-648.5
  0
VERTEX
  8
1_0
  10
408.5
  20
-732.5
  0
SEQEND
  0
POLYLINE
  8
1_0
  70
1
  66
1
  0
VERTEX
  8
1_0
  10
-190.5
  20
-723
  0
VERTEX
  8
1_0
  10
-158.5
  20
-723
  0
VERTEX
  8
1_0
  10
-158.5
  20
-640
  0
VERTEX
  8
1_0
  10
-190.5
  20
-640
  0
VERTEX
  8
1_0
  10
-190.5
  20
-723
  0
SEQEND
  0
POLYLINE
  8
1_0
  70
1
  66
1
  0
VERTEX
  8
1_0
  10
-536.5
  20
-732.5
  0
VERTEX
  8
1_0
  10
-503
  20
-732.5
  0
VERTEX
  8
1_0
  10
-503
  20
-653.5
  0
VERTEX
  8
1_0
  10
-536.5
  20
-653.5
  0
VERTEX
  8
1_0
  10
-536.5
  20
-732.5
  0
SEQEND
  0
POLYLINE
  8
1_0
  70
1
  66
1
  0
VERTEX
  8
1_0
  10
-803
  20
-1125
  0
VERTEX
  8
1_0
  10
-732.5
  20
-1125
  0
VERTEX
  8
1_0
  10
-732.5
  20
-1088
  0
VERTEX
  8
1_0
  10
-803
  20
-1088
  0
VERTEX
  8
1_0
  10
-803
  20
-1125
  0
SEQEND
  0
POLYLINE
  8
1_0
  70
1
  66
1
  0
VERTEX
  8
1_0
  10
-844
  20
-1032.5
  0
VERTEX
  8
1_0
  10
-792
  20
-1032.5
  0
VERTEX
  8
1_0
  10
-792
  20
-980.5
  0
VERTEX
  8
1_0
  10
-844
  20
-980.5
  0
VERTEX
  8
1_0
  10
-844
  20
-1032.5
  0
SEQEND
  0
POLYLINE
  8
1_0
  70
1
  66
1
  0
VERTEX
  8
1_0
  10
-844
  20
-1132.5
  0
VERTEX
  8
1_0
  10
-792
  20
-1132.5
  0
VERTEX
  8
1_0
  10
-792
  20
-1080.5
  0
VERTEX
  8
1_0
  10
-844
  20
-1080.5
  0
VERTEX
  8
1_0
  10
-844
  20
-1132.5
  0
SEQEND
  0
POLYLINE
  8
1_0
  70
1
  66
1
  0
VERTEX
  8
1_0
  10
-844
  20
-1232.5
  0
VERTEX
  8
1_0
  10
-792
  20
-1232.5
  0
VERTEX
  8
1_0
  10
-792
  20
-1180.5
  0
VERTEX
  8
1_0
  10
-844
  20
-1180.5
  0
VERTEX
  8
1_0
  10
-844
  20
-1232.5
  0
SEQEND
  0
POLYLINE
  8
1_0
  70
1
  66
1
  0
VERTEX
  8
1_0
  10
-886.5
  20
-1032.5
  0
VERTEX
  8
1_0
  10
-834.5
  20
-1032.5
  0
VERTEX
  8
1_0
  10
-834.5
  20
-980.5
  0
VERTEX
  8
1_0
  10
-886.5
  20
-980.5
  0
VERTEX
  8
1_0
  10
-886.5
  20
-1032.5
  0
SEQEND
  0
POLYLINE
  8
1_0
  70
1
  66
1
  0
VERTEX
  8
1_0
  10
-886.5
  20
-1132.5
  0
VERTEX
  8
1_0
  10
-834.5
  20
-1132.5
  0
VERTEX
  8
1_0
  10
-834.5
  20
-1080.5
  0
VERTEX
  8
1_0
  10
-886.5
  20
-1080.5
  0
VERTEX
  8
1_0
  10
-886.5
  20
-1132.5
  0
SEQEND
  0
POLYLINE
  8
1_0
  70
1
  66
1
  0
VERTEX
  8
1_0
  10
-886.5
  20
-1232.5
  0
VERTEX
  8
1_0
  10
-834.5
  20
-1232.5
  0
VERTEX
  8
1_0
  10
-834.5
  20
-1180.5
  0
VERTEX
  8
1_0
  10
-886.5
  20
-1180.5
  0
VERTEX
  8
1_0
  10
-886.5
  20
-1232.5
  0
SEQEND
  0
POLYLINE
  8
1_0
  70
1
  66
1
  0
VERTEX
  8
1_0
  10
1521
  20
-1180
  0
VERTEX
  8
1_0
  10
1469
  20
-1180
  0
VERTEX
  8
1_0
  10
1469
  20
-1232
  0
VERTEX
  8
1_0
  10
1521
  20
-1232
  0
VERTEX
  8
1_0
  10
1521
  20
-1180
  0
SEQEND
  0
POLYLINE
  8
1_0
  70
1
  66
1
  0
VERTEX
  8
1_0
  10
1521
  20
-1080
  0
VERTEX
  8
1_0
  10
1469
  20
-1080
  0
VERTEX
  8
1_0
  10
1469
  20
-1132
  0
VERTEX
  8
1_0
  10
1521
  20
-1132
  0
VERTEX
  8
1_0
  10
1521
  20
-1080
  0
SEQEND
  0
POLYLINE
  8
1_0
  70
1
  66
1
  0
VERTEX
  8
1_0
  10
1521
  20
-980
  0
VERTEX
  8
1_0
  10
1469
  20
-980
  0
VERTEX
  8
1_0
  10
1469
  20
-1032
  0
VERTEX
  8
1_0
  10
1521
  20
-1032
  0
VERTEX
  8
1_0
  10
1521
  20
-980
  0
SEQEND
  0
POLYLINE
  8
1_0
  70
1
  66
1
  0
VERTEX
  8
1_0
  10
1563.5
  20
-1180
  0
VERTEX
  8
1_0
  10
1511.5
  20
-1180
  0
VERTEX
  8
1_0
  10
1511.5
  20
-1232
  0
VERTEX
  8
1_0
  10
1563.5
  20
-1232
  0
VERTEX
  8
1_0
  10
1563.5
  20
-1180
  0
SEQEND
  0
POLYLINE
  8
1_0
  70
1
  66
1
  0
VERTEX
  8
1_0
  10
1563.5
  20
-1080
  0
VERTEX
  8
1_0
  10
1511.5
  20
-1080
  0
VERTEX
  8
1_0
  10
1511.5
  20
-1132
  0
VERTEX
  8
1_0
  10
1563.5
  20
-1132
  0
VERTEX
  8
1_0
  10
1563.5
  20
-1080
  0
SEQEND
  0
POLYLINE
  8
1_0
  70
1
  66
1
  0
VERTEX
  8
1_0
  10
1563.5
  20
-980
  0
VERTEX
  8
1_0
  10
1511.5
  20
-980
  0
VERTEX
  8
1_0
  10
1511.5
  20
-1032
  0
VERTEX
  8
1_0
  10
1563.5
  20
-1032
  0
VERTEX
  8
1_0
  10
1563.5
  20
-980
  0
SEQEND
  0
POLYLINE
  8
1_0
  70
1
  66
1
  0
VERTEX
  8
1_0
  10
-843
  20
-1031.5
  0
VERTEX
  8
1_0
  10
-793
  20
-1031.5
  0
VERTEX
  8
1_0
  10
-793
  20
-981.5
  0
VERTEX
  8
1_0
  10
-843
  20
-981.5
  0
VERTEX
  8
1_0
  10
-843
  20
-1031.5
  0
SEQEND
  0
POLYLINE
  8
1_0
  70
1
  66
1
  0
VERTEX
  8
1_0
  10
-843
  20
-1131.5
  0
VERTEX
  8
1_0
  10
-793
  20
-1131.5
  0
VERTEX
  8
1_0
  10
-793
  20
-1081.5
  0
VERTEX
  8
1_0
  10
-843
  20
-1081.5
  0
VERTEX
  8
1_0
  10
-843
  20
-1131.5
  0
SEQEND
  0
POLYLINE
  8
1_0
  70
1
  66
1
  0
VERTEX
  8
1_0
  10
-843
  20
-1231.5
  0
VERTEX
  8
1_0
  10
-793
  20
-1231.5
  0
VERTEX
  8
1_0
  10
-793
  20
-1181.5
  0
VERTEX
  8
1_0
  10
-843
  20
-1181.5
  0
VERTEX
  8
1_0
  10
-843
  20
-1231.5
  0
SEQEND
  0
POLYLINE
  8
1_0
  70
1
  66
1
  0
VERTEX
  8
1_0
  10
-885.5
  20
-1031.5
  0
VERTEX
  8
1_0
  10
-835.5
  20
-1031.5
  0
VERTEX
  8
1_0
  10
-835.5
  20
-981.5
  0
VERTEX
  8
1_0
  10
-885.5
  20
-981.5
  0
VERTEX
  8
1_0
  10
-885.5
  20
-1031.5
  0
SEQEND
  0
POLYLINE
  8
1_0
  70
1
  66
1
  0
VERTEX
  8
1_0
  10
-885.5
  20
-1131.5
  0
VERTEX
  8
1_0
  10
-835.5
  20
-1131.5
  0
VERTEX
  8
1_0
  10
-835.5
  20
-1081.5
  0
VERTEX
  8
1_0
  10
-885.5
  20
-1081.5
  0
VERTEX
  8
1_0
  10
-885.5
  20
-1131.5
  0
SEQEND
  0
POLYLINE
  8
1_0
  70
1
  66
1
  0
VERTEX
  8
1_0
  10
-885.5
  20
-1231.5
  0
VERTEX
  8
1_0
  10
-835.5
  20
-1231.5
  0
VERTEX
  8
1_0
  10
-835.5
  20
-1181.5
  0
VERTEX
  8
1_0
  10
-885.5
  20
-1181.5
  0
VERTEX
  8
1_0
  10
-885.5
  20
-1231.5
  0
SEQEND
  0
POLYLINE
  8
1_0
  70
1
  66
1
  0
VERTEX
  8
1_0
  10
1520
  20
-1181
  0
VERTEX
  8
1_0
  10
1470
  20
-1181
  0
VERTEX
  8
1_0
  10
1470
  20
-1231
  0
VERTEX
  8
1_0
  10
1520
  20
-1231
  0
VERTEX
  8
1_0
  10
1520
  20
-1181
  0
SEQEND
  0
POLYLINE
  8
1_0
  70
1
  66
1
  0
VERTEX
  8
1_0
  10
1520
  20
-1081
  0
VERTEX
  8
1_0
  10
1470
  20
-1081
  0
VERTEX
  8
1_0
  10
1470
  20
-1131
  0
VERTEX
  8
1_0
  10
1520
  20
-1131
  0
VERTEX
  8
1_0
  10
1520
  20
-1081
  0
SEQEND
  0
POLYLINE
  8
1_0
  70
1
  66
1
  0
VERTEX
  8
1_0
  10
1520
  20
-981
  0
VERTEX
  8
1_0
  10
1470
  20
-981
  0
VERTEX
  8
1_0
  10
1470
  20
-1031
  0
VERTEX
  8
1_0
  10
1520
  20
-1031
  0
VERTEX
  8
1_0
  10
1520
  20
-981
  0
SEQEND
  0
POLYLINE
  8
1_0
  70
1
  66
1
  0
VERTEX
  8
1_0
  10
1562.5
  20
-1181
  0
VERTEX
  8
1_0
  10
1512.5
  20
-1181
  0
VERTEX
  8
1_0
  10
1512.5
  20
-1231
  0
VERTEX
  8
1_0
  10
1562.5
  20
-1231
  0
VERTEX
  8
1_0
  10
1562.5
  20
-1181
  0
SEQEND
  0
POLYLINE
  8
1_0
  70
1
  66
1
  0
VERTEX
  8
1_0
  10
1562.5
  20
-1081
  0
VERTEX
  8
1_0
  10
1512.5
  20
-1081
  0
VERTEX
  8
1_0
  10
1512.5
  20
-1131
  0
VERTEX
  8
1_0
  10
1562.5
  20
-1131
  0
VERTEX
  8
1_0
  10
1562.5
  20
-1081
  0
SEQEND
  0
POLYLINE
  8
1_0
  70
1
  66
1
  0
VERTEX
  8
1_0
  10
1562.5
  20
-981
  0
VERTEX
  8
1_0
  10
1512.5
  20
-981
  0
VERTEX
  8
1_0
  10
1512.5
  20
-1031
  0
VERTEX
  8
1_0
  10
1562.5
  20
-1031
  0
VERTEX
  8
1_0
  10
1562.5
  20
-981
  0
SEQEND
  0
POLYLINE
  8
1_0
  70
1
  66
1
  0
VERTEX
  8
1_0
  10
-843
  20
-1031.5
  0
VERTEX
  8
1_0
  10
-793
  20
-1031.5
  0
VERTEX
  8
1_0
  10
-793
  20
-981.5
  0
VERTEX
  8
1_0
  10
-843
  20
-981.5
  0
VERTEX
  8
1_0
  10
-843
  20
-1031.5
  0
SEQEND
  0
POLYLINE
  8
1_0
  70
1
  66
1
  0
VERTEX
  8
1_0
  10
-843
  20
-1131.5
  0
VERTEX
  8
1_0
  10
-793
  20
-1131.5
  0
VERTEX
  8
1_0
  10
-793
  20
-1081.5
  0
VERTEX
  8
1_0
  10
-843
  20
-1081.5
  0
VERTEX
  8
1_0
  10
-843
  20
-1131.5
  0
SEQEND
  0
POLYLINE
  8
1_0
  70
1
  66
1
  0
VERTEX
  8
1_0
  10
-843
  20
-1231.5
  0
VERTEX
  8
1_0
  10
-793
  20
-1231.5
  0
VERTEX
  8
1_0
  10
-793
  20
-1181.5
  0
VERTEX
  8
1_0
  10
-843
  20
-1181.5
  0
VERTEX
  8
1_0
  10
-843
  20
-1231.5
  0
SEQEND
  0
POLYLINE
  8
1_0
  70
1
  66
1
  0
VERTEX
  8
1_0
  10
-885.5
  20
-1031.5
  0
VERTEX
  8
1_0
  10
-835.5
  20
-1031.5
  0
VERTEX
  8
1_0
  10
-835.5
  20
-981.5
  0
VERTEX
  8
1_0
  10
-885.5
  20
-981.5
  0
VERTEX
  8
1_0
  10
-885.5
  20
-1031.5
  0
SEQEND
  0
POLYLINE
  8
1_0
  70
1
  66
1
  0
VERTEX
  8
1_0
  10
-885.5
  20
-1131.5
  0
VERTEX
  8
1_0
  10
-835.5
  20
-1131.5
  0
VERTEX
  8
1_0
  10
-835.5
  20
-1081.5
  0
VERTEX
  8
1_0
  10
-885.5
  20
-1081.5
  0
VERTEX
  8
1_0
  10
-885.5
  20
-1131.5
  0
SEQEND
  0
POLYLINE
  8
1_0
  70
1
  66
1
  0
VERTEX
  8
1_0
  10
-885.5
  20
-1231.5
  0
VERTEX
  8
1_0
  10
-835.5
  20
-1231.5
  0
VERTEX
  8
1_0
  10
-835.5
  20
-1181.5
  0
VERTEX
  8
1_0
  10
-885.5
  20
-1181.5
  0
VERTEX
  8
1_0
  10
-885.5
  20
-1231.5
  0
SEQEND
  0
POLYLINE
  8
1_0
  70
1
  66
1
  0
VERTEX
  8
1_0
  10
1520
  20
-1181
  0
VERTEX
  8
1_0
  10
1470
  20
-1181
  0
VERTEX
  8
1_0
  10
1470
  20
-1231
  0
VERTEX
  8
1_0
  10
1520
  20
-1231
  0
VERTEX
  8
1_0
  10
1520
  20
-1181
  0
SEQEND
  0
POLYLINE
  8
1_0
  70
1
  66
1
  0
VERTEX
  8
1_0
  10
1520
  20
-1081
  0
VERTEX
  8
1_0
  10
1470
  20
-1081
  0
VERTEX
  8
1_0
  10
1470
  20
-1131
  0
VERTEX
  8
1_0
  10
1520
  20
-1131
  0
VERTEX
  8
1_0
  10
1520
  20
-1081
  0
SEQEND
  0
POLYLINE
  8
1_0
  70
1
  66
1
  0
VERTEX
  8
1_0
  10
1520
  20
-981
  0
VERTEX
  8
1_0
  10
1470
  20
-981
  0
VERTEX
  8
1_0
  10
1470
  20
-1031
  0
VERTEX
  8
1_0
  10
1520
  20
-1031
  0
VERTEX
  8
1_0
  10
1520
  20
-981
  0
SEQEND
  0
POLYLINE
  8
1_0
  70
1
  66
1
  0
VERTEX
  8
1_0
  10
1562.5
  20
-1181
  0
VERTEX
  8
1_0
  10
1512.5
  20
-1181
  0
VERTEX
  8
1_0
  10
1512.5
  20
-1231
  0
VERTEX
  8
1_0
  10
1562.5
  20
-1231
  0
VERTEX
  8
1_0
  10
1562.5
  20
-1181
  0
SEQEND
  0
POLYLINE
  8
1_0
  70
1
  66
1
  0
VERTEX
  8
1_0
  10
1562.5
  20
-1081
  0
VERTEX
  8
1_0
  10
1512.5
  20
-1081
  0
VERTEX
  8
1_0
  10
1512.5
  20
-1131
  0
VERTEX
  8
1_0
  10
1562.5
  20
-1131
  0
VERTEX
  8
1_0
  10
1562.5
  20
-1081
  0
SEQEND
  0
POLYLINE
  8
1_0
  70
1
  66
1
  0
VERTEX
  8
1_0
  10
1562.5
  20
-981
  0
VERTEX
  8
1_0
  10
1512.5
  20
-981
  0
VERTEX
  8
1_0
  10
1512.5
  20
-1031
  0
VERTEX
  8
1_0
  10
1562.5
  20
-1031
  0
VERTEX
  8
1_0
  10
1562.5
  20
-981
  0
SEQEND
  0
POLYLINE
  8
1_0
  70
1
  66
1
  0
VERTEX
  8
1_0
  10
-836.5
  20
-1302.5
  0
VERTEX
  8
1_0
  10
-834.5
  20
-1302.5
  0
VERTEX
  8
1_0
  10
-834.5
  20
-1206.5
  0
VERTEX
  8
1_0
  10
-836.5
  20
-1206.5
  0
VERTEX
  8
1_0
  10
-836.5
  20
-1302.5
  0
SEQEND
  0
POLYLINE
  8
1_0
  70
1
  66
1
  0
VERTEX
  8
1_0
  10
-836.5
  20
-1006.5
  0
VERTEX
  8
1_0
  10
-834.5
  20
-1006.5
  0
VERTEX
  8
1_0
  10
-834.5
  20
-910.5
  0
VERTEX
  8
1_0
  10
-836.5
  20
-910.5
  0
VERTEX
  8
1_0
  10
-836.5
  20
-1006.5
  0
SEQEND
  0
POLYLINE
  8
1_0
  70
1
  66
1
  0
VERTEX
  8
1_0
  10
1513.5
  20
-910
  0
VERTEX
  8
1_0
  10
1511.5
  20
-910
  0
VERTEX
  8
1_0
  10
1511.5
  20
-1006
  0
VERTEX
  8
1_0
  10
1513.5
  20
-1006
  0
VERTEX
  8
1_0
  10
1513.5
  20
-910
  0
SEQEND
  0
POLYLINE
  8
1_0
  70
1
  66
1
  0
VERTEX
  8
1_0
  10
1513.5
  20
-1206
  0
VERTEX
  8
1_0
  10
1511.5
  20
-1206
  0
VERTEX
  8
1_0
  10
1511.5
  20
-1302
  0
VERTEX
  8
1_0
  10
1513.5
  20
-1302
  0
VERTEX
  8
1_0
  10
1513.5
  20
-1206
  0
SEQEND
  0
POLYLINE
  8
1_0
  70
1
  66
1
  0
VERTEX
  8
1_0
  10
-842
  20
-1030.5
  0
VERTEX
  8
1_0
  10
-794
  20
-1030.5
  0
VERTEX
  8
1_0
  10
-794
  20
-982.5
  0
VERTEX
  8
1_0
  10
-842
  20
-982.5
  0
VERTEX
  8
1_0
  10
-842
  20
-1030.5
  0
SEQEND
  0
POLYLINE
  8
1_0
  70
1
  66
1
  0
VERTEX
  8
1_0
  10
-842
  20
-1130.5
  0
VERTEX
  8
1_0
  10
-794
  20
-1130.5
  0
VERTEX
  8
1_0
  10
-794
  20
-1082.5
  0
VERTEX
  8
1_0
  10
-842
  20
-1082.5
  0
VERTEX
  8
1_0
  10
-842
  20
-1130.5
  0
SEQEND
  0
POLYLINE
  8
1_0
  70
1
  66
1
  0
VERTEX
  8
1_0
  10
-842
  20
-1230.5
  0
VERTEX
  8
1_0
  10
-794
  20
-1230.5
  0
VERTEX
  8
1_0
  10
-794
  20
-1182.5
  0
VERTEX
  8
1_0
  10
-842
  20
-1182.5
  0
VERTEX
  8
1_0
  10
-842
  20
-1230.5
  0
SEQEND
  0
POLYLINE
  8
1_0
  70
1
  66
1
  0
VERTEX
  8
1_0
  10
-884.5
  20
-1030.5
  0
VERTEX
  8
1_0
  10
-836.5
  20
-1030.5
  0
VERTEX
  8
1_0
  10
-836.5
  20
-982.5
  0
VERTEX
  8
1_0
  10
-884.5
  20
-982.5
  0
VERTEX
  8
1_0
  10
-884.5
  20
-1030.5
  0
SEQEND
  0
POLYLINE
  8
1_0
  70
1
  66
1
  0
VERTEX
  8
1_0
  10
-884.5
  20
-1130.5
  0
VERTEX
  8
1_0
  10
-836.5
  20
-1130.5
  0
VERTEX
  8
1_0
  10
-836.5
  20
-1082.5
  0
VERTEX
  8
1_0
  10
-884.5
  20
-1082.5
  0
VERTEX
  8
1_0
  10
-884.5
  20
-1130.5
  0
SEQEND
  0
POLYLINE
  8
1_0
  70
1
  66
1
  0
VERTEX
  8
1_0
  10
-884.5
  20
-1230.5
  0
VERTEX
  8
1_0
  10
-836.5
  20
-1230.5
  0
VERTEX
  8
1_0
  10
-836.5
  20
-1182.5
  0
VERTEX
  8
1_0
  10
-884.5
  20
-1182.5
  0
VERTEX
  8
1_0
  10
-884.5
  20
-1230.5
  0
SEQEND
  0
POLYLINE
  8
1_0
  70
1
  66
1
  0
VERTEX
  8
1_0
  10
1519
  20
-1182
  0
VERTEX
  8
1_0
  10
1471
  20
-1182
  0
VERTEX
  8
1_0
  10
1471
  20
-1230
  0
VERTEX
  8
1_0
  10
1519
  20
-1230
  0
VERTEX
  8
1_0
  10
1519
  20
-1182
  0
SEQEND
  0
POLYLINE
  8
1_0
  70
1
  66
1
  0
VERTEX
  8
1_0
  10
1519
  20
-1082
  0
VERTEX
  8
1_0
  10
1471
  20
-1082
  0
VERTEX
  8
1_0
  10
1471
  20
-1130
  0
VERTEX
  8
1_0
  10
1519
  20
-1130
  0
VERTEX
  8
1_0
  10
1519
  20
-1082
  0
SEQEND
  0
POLYLINE
  8
1_0
  70
1
  66
1
  0
VERTEX
  8
1_0
  10
1519
  20
-982
  0
VERTEX
  8
1_0
  10
1471
  20
-982
  0
VERTEX
  8
1_0
  10
1471
  20
-1030
  0
VERTEX
  8
1_0
  10
1519
  20
-1030
  0
VERTEX
  8
1_0
  10
1519
  20
-982
  0
SEQEND
  0
POLYLINE
  8
1_0
  70
1
  66
1
  0
VERTEX
  8
1_0
  10
1561.5
  20
-1182
  0
VERTEX
  8
1_0
  10
1513.5
  20
-1182
  0
VERTEX
  8
1_0
  10
1513.5
  20
-1230
  0
VERTEX
  8
1_0
  10
1561.5
  20
-1230
  0
VERTEX
  8
1_0
  10
1561.5
  20
-1182
  0
SEQEND
  0
POLYLINE
  8
1_0
  70
1
  66
1
  0
VERTEX
  8
1_0
  10
1561.5
  20
-1082
  0
VERTEX
  8
1_0
  10
1513.5
  20
-1082
  0
VERTEX
  8
1_0
  10
1513.5
  20
-1130
  0
VERTEX
  8
1_0
  10
1561.5
  20
-1130
  0
VERTEX
  8
1_0
  10
1561.5
  20
-1082
  0
SEQEND
  0
POLYLINE
  8
1_0
  70
1
  66
1
  0
VERTEX
  8
1_0
  10
1561.5
  20
-982
  0
VERTEX
  8
1_0
  10
1513.5
  20
-982
  0
VERTEX
  8
1_0
  10
1513.5
  20
-1030
  0
VERTEX
  8
1_0
  10
1561.5
  20
-1030
  0
VERTEX
  8
1_0
  10
1561.5
  20
-982
  0
SEQEND
  0
POLYLINE
  8
1_0
  70
1
  66
1
  0
VERTEX
  8
1_0
  10
-803
  20
-1125
  0
VERTEX
  8
1_0
  10
-744.5
  20
-1125
  0
VERTEX
  8
1_0
  10
-744.5
  20
-1088
  0
VERTEX
  8
1_0
  10
-803
  20
-1088
  0
VERTEX
  8
1_0
  10
-803
  20
-1125
  0
SEQEND
  0
POLYLINE
  8
1_0
  70
1
  66
1
  0
VERTEX
  8
1_0
  10
-67
  20
-724.5
  0
VERTEX
  8
1_0
  10
17.5
  20
-724.5
  0
VERTEX
  8
1_0
  10
17.5
  20
-714.5
  0
VERTEX
  8
1_0
  10
-67
  20
-714.5
  0
VERTEX
  8
1_0
  10
-67
  20
-724.5
  0
SEQEND
  0
POLYLINE
  8
1_0
  70
1
  66
1
  0
VERTEX
  8
1_0
  10
84.5
  20
-724.5
  0
VERTEX
  8
1_0
  10
169
  20
-724.5
  0
VERTEX
  8
1_0
  10
169
  20
-714.5
  0
VERTEX
  8
1_0
  10
84.5
  20
-714.5
  0
VERTEX
  8
1_0
  10
84.5
  20
-724.5
  0
SEQEND
  0
POLYLINE
  8
1_0
  70
1
  66
1
  0
VERTEX
  8
1_0
  10
-803
  20
-1124
  0
VERTEX
  8
1_0
  10
-745.5
  20
-1124
  0
VERTEX
  8
1_0
  10
-745.5
  20
-1089
  0
VERTEX
  8
1_0
  10
-803
  20
-1089
  0
VERTEX
  8
1_0
  10
-803
  20
-1124
  0
SEQEND
  0
POLYLINE
  8
1_0
  70
1
  66
1
  0
VERTEX
  8
1_0
  10
-135.5
  20
-855
  0
VERTEX
  8
1_0
  10
-130.5
  20
-855
  0
VERTEX
  8
1_0
  10
-130.5
  20
-772
  0
VERTEX
  8
1_0
  10
-135.5
  20
-772
  0
VERTEX
  8
1_0
  10
-135.5
  20
-855
  0
SEQEND
  0
POLYLINE
  8
1_0
  70
1
  66
1
  0
VERTEX
  8
1_0
  10
-135.5
  20
-855
  0
VERTEX
  8
1_0
  10
-130.5
  20
-855
  0
VERTEX
  8
1_0
  10
-130.5
  20
-772
  0
VERTEX
  8
1_0
  10
-135.5
  20
-772
  0
VERTEX
  8
1_0
  10
-135.5
  20
-855
  0
SEQEND
  0
POLYLINE
  8
1_0
  70
1
  66
1
  0
VERTEX
  8
1_0
  10
-135.5
  20
-855
  0
VERTEX
  8
1_0
  10
-130.5
  20
-855
  0
VERTEX
  8
1_0
  10
-130.5
  20
-772
  0
VERTEX
  8
1_0
  10
-135.5
  20
-772
  0
VERTEX
  8
1_0
  10
-135.5
  20
-855
  0
SEQEND
  0
POLYLINE
  8
1_0
  70
1
  66
1
  0
VERTEX
  8
1_0
  10
-618
  20
-896
  0
VERTEX
  8
1_0
  10
-614
  20
-896
  0
VERTEX
  8
1_0
  10
-614
  20
-813
  0
VERTEX
  8
1_0
  10
-618
  20
-813
  0
VERTEX
  8
1_0
  10
-618
  20
-896
  0
SEQEND
  0
POLYLINE
  8
1_0
  70
1
  66
1
  0
VERTEX
  8
1_0
  10
-376.5
  20
-847
  0
VERTEX
  8
1_0
  10
-372.5
  20
-847
  0
VERTEX
  8
1_0
  10
-372.5
  20
-764
  0
VERTEX
  8
1_0
  10
-376.5
  20
-764
  0
VERTEX
  8
1_0
  10
-376.5
  20
-847
  0
SEQEND
  0
POLYLINE
  8
1_0
  70
1
  66
1
  0
VERTEX
  8
1_0
  10
-376.5
  20
-847
  0
VERTEX
  8
1_0
  10
-372.5
  20
-847
  0
VERTEX
  8
1_0
  10
-372.5
  20
-764
  0
VERTEX
  8
1_0
  10
-376.5
  20
-764
  0
VERTEX
  8
1_0
  10
-376.5
  20
-847
  0
SEQEND
  0
POLYLINE
  8
1_0
  70
1
  66
1
  0
VERTEX
  8
1_0
  10
-618
  20
-896
  0
VERTEX
  8
1_0
  10
-614
  20
-896
  0
VERTEX
  8
1_0
  10
-614
  20
-813
  0
VERTEX
  8
1_0
  10
-618
  20
-813
  0
VERTEX
  8
1_0
  10
-618
  20
-896
  0
SEQEND
  0
POLYLINE
  8
1_0
  70
1
  66
1
  0
VERTEX
  8
1_0
  10
-618
  20
-896
  0
VERTEX
  8
1_0
  10
-614
  20
-896
  0
VERTEX
  8
1_0
  10
-614
  20
-813
  0
VERTEX
  8
1_0
  10
-618
  20
-813
  0
VERTEX
  8
1_0
  10
-618
  20
-896
  0
SEQEND
  0
POLYLINE
  8
1_0
  70
1
  66
1
  0
VERTEX
  8
1_0
  10
-376.5
  20
-847
  0
VERTEX
  8
1_0
  10
-372.5
  20
-847
  0
VERTEX
  8
1_0
  10
-372.5
  20
-764
  0
VERTEX
  8
1_0
  10
-376.5
  20
-764
  0
VERTEX
  8
1_0
  10
-376.5
  20
-847
  0
SEQEND
  0
POLYLINE
  8
1_0
  70
1
  66
1
  0
VERTEX
  8
1_0
  10
1055
  20
-724
  0
VERTEX
  8
1_0
  10
1055
  20
-642.5
  0
VERTEX
  8
1_0
  10
1050.5
  20
-642.5
  0
VERTEX
  8
1_0
  10
1050.5
  20
-724
  0
VERTEX
  8
1_0
  10
1055
  20
-724
  0
SEQEND
  0
POLYLINE
  8
1_0
  70
1
  66
1
  0
VERTEX
  8
1_0
  10
1055
  20
-724
  0
VERTEX
  8
1_0
  10
1055
  20
-642.5
  0
VERTEX
  8
1_0
  10
1050.5
  20
-642.5
  0
VERTEX
  8
1_0
  10
1050.5
  20
-724
  0
VERTEX
  8
1_0
  10
1055
  20
-724
  0
SEQEND
  0
POLYLINE
  8
1_0
  70
1
  66
1
  0
VERTEX
  8
1_0
  10
657.5
  20
-726.5
  0
VERTEX
  8
1_0
  10
659.5
  20
-726.5
  0
VERTEX
  8
1_0
  10
659.5
  20
-642.5
  0
VERTEX
  8
1_0
  10
657.5
  20
-642.5
  0
VERTEX
  8
1_0
  10
657.5
  20
-726.5
  0
SEQEND
  0
POLYLINE
  8
1_0
  70
1
  66
1
  0
VERTEX
  8
1_0
  10
1055
  20
-724
  0
VERTEX
  8
1_0
  10
1055
  20
-642.5
  0
VERTEX
  8
1_0
  10
1050.5
  20
-642.5
  0
VERTEX
  8
1_0
  10
1050.5
  20
-724
  0
VERTEX
  8
1_0
  10
1055
  20
-724
  0
SEQEND
  0
POLYLINE
  8
1_0
  70
1
  66
1
  0
VERTEX
  8
1_0
  10
-24.5
  20
-760
  0
VERTEX
  8
1_0
  10
45.5
  20
-760
  0
VERTEX
  8
1_0
  10
45.5
  20
-754
  0
VERTEX
  8
1_0
  10
-24.5
  20
-754
  0
VERTEX
  8
1_0
  10
-24.5
  20
-760
  0
SEQEND
  0
POLYLINE
  8
1_0
  70
1
  66
1
  0
VERTEX
  8
1_0
  10
-24.5
  20
-760
  0
VERTEX
  8
1_0
  10
45.5
  20
-760
  0
VERTEX
  8
1_0
  10
45.5
  20
-754
  0
VERTEX
  8
1_0
  10
-24.5
  20
-754
  0
VERTEX
  8
1_0
  10
-24.5
  20
-760
  0
SEQEND
  0
POLYLINE
  8
1_0
  70
1
  66
1
  0
VERTEX
  8
1_0
  10
-23.5
  20
-759
  0
VERTEX
  8
1_0
  10
45.5
  20
-759
  0
VERTEX
  8
1_0
  10
45.5
  20
-755
  0
VERTEX
  8
1_0
  10
-23.5
  20
-755
  0
VERTEX
  8
1_0
  10
-23.5
  20
-759
  0
SEQEND
  0
POLYLINE
  8
1_0
  70
1
  66
1
  0
VERTEX
  8
1_0
  10
294
  20
-1359.6
  0
VERTEX
  8
1_0
  10
268.4
  20
-1359.6
  0
VERTEX
  8
1_0
  10
279.07
  20
-1351.6
  0
VERTEX
  8
1_0
  10
294
  20
-1340.4
  0
VERTEX
  8
1_0
  10
294
  20
-1330.8
  0
VERTEX
  8
1_0
  10
289.2
  20
-1326
  0
VERTEX
  8
1_0
  10
266.8
  20
-1326
  0
VERTEX
  8
1_0
  10
262
  20
-1330.8
  0
VERTEX
  8
1_0
  10
262
  20
-1338
  0
VERTEX
  8
1_0
  10
268.4
  20
-1338
  0
VERTEX
  8
1_0
  10
268.4
  20
-1334
  0
VERTEX
  8
1_0
  10
270
  20
-1332.4
  0
VERTEX
  8
1_0
  10
286
  20
-1332.4
  0
VERTEX
  8
1_0
  10
287.6
  20
-1334
  0
VERTEX
  8
1_0
  10
287.6
  20
-1337.2
  0
VERTEX
  8
1_0
  10
262
  20
-1356.4
  0
VERTEX
  8
1_0
  10
262
  20
-1366
  0
VERTEX
  8
1_0
  10
294
  20
-1366
  0
VERTEX
  8
1_0
  10
294
  20
-1359.6
  0
SEQEND
  0
POLYLINE
  8
1_0
  70
1
  66
1
  0
VERTEX
  8
1_0
  10
1480.2
  20
-827.4
  0
VERTEX
  8
1_0
  10
1493
  20
-827.4
  0
VERTEX
  8
1_0
  10
1493
  20
-821
  0
VERTEX
  8
1_0
  10
1461
  20
-821
  0
VERTEX
  8
1_0
  10
1461
  20
-827.4
  0
VERTEX
  8
1_0
  10
1473.8
  20
-827.4
  0
VERTEX
  8
1_0
  10
1473.8
  20
-861
  0
VERTEX
  8
1_0
  10
1480.2
  20
-861
  0
VERTEX
  8
1_0
  10
1480.2
  20
-827.4
  0
SEQEND
  0
POLYLINE
  8
1_0
  70
1
  66
1
  0
VERTEX
  8
1_0
  10
134
  20
-1326
  0
VERTEX
  8
1_0
  10
127.6
  20
-1326
  0
VERTEX
  8
1_0
  10
127.6
  20
-1342.8
  0
VERTEX
  8
1_0
  10
108.4
  20
-1342.8
  0
VERTEX
  8
1_0
  10
108.4
  20
-1326
  0
VERTEX
  8
1_0
  10
102
  20
-1326
  0
VERTEX
  8
1_0
  10
102
  20
-1366
  0
VERTEX
  8
1_0
  10
108.4
  20
-1366
  0
VERTEX
  8
1_0
  10
108.4
  20
-1349.2
  0
VERTEX
  8
1_0
  10
127.6
  20
-1349.2
  0
VERTEX
  8
1_0
  10
127.6
  20
-1366
  0
VERTEX
  8
1_0
  10
134
  20
-1366
  0
VERTEX
  8
1_0
  10
134
  20
-1326
  0
SEQEND
  0
POLYLINE
  8
1_0
  70
1
  66
1
  0
VERTEX
  8
1_0
  10
214
  20
-1359.6
  0
VERTEX
  8
1_0
  10
188.4
  20
-1359.6
  0
VERTEX
  8
1_0
  10
188.4
  20
-1326
  0
VERTEX
  8
1_0
  10
182
  20
-1326
  0
VERTEX
  8
1_0
  10
182
  20
-1366
  0
VERTEX
  8
1_0
  10
214
  20
-1366
  0
VERTEX
  8
1_0
  10
214
  20
-1359.6
  0
SEQEND
  0
POLYLINE
  8
1_0
  70
1
  66
1
  0
VERTEX
  8
1_0
  10
1453
  20
-821
  0
VERTEX
  8
1_0
  10
1446.6
  20
-821
  0
VERTEX
  8
1_0
  10
1446.6
  20
-853
  0
VERTEX
  8
1_0
  10
1445
  20
-854.6
  0
VERTEX
  8
1_0
  10
1429
  20
-854.6
  0
VERTEX
  8
1_0
  10
1427.4
  20
-853
  0
VERTEX
  8
1_0
  10
1427.4
  20
-821
  0
VERTEX
  8
1_0
  10
1421
  20
-821
  0
VERTEX
  8
1_0
  10
1421
  20
-856.2
  0
VERTEX
  8
1_0
  10
1425.8
  20
-861
  0
VERTEX
  8
1_0
  10
1448.2
  20
-861
  0
VERTEX
  8
1_0
  10
1453
  20
-856.2
  0
VERTEX
  8
1_0
  10
1453
  20
-821
  0
SEQEND
  0
POLYLINE
  8
1_0
  70
1
  66
1
  0
VERTEX
  8
1_0
  10
162
  20
-1306.6
  0
VERTEX
  8
1_0
  10
136.4
  20
-1306.6
  0
VERTEX
  8
1_0
  10
136.4
  20
-1273
  0
VERTEX
  8
1_0
  10
130
  20
-1273
  0
VERTEX
  8
1_0
  10
130
  20
-1313
  0
VERTEX
  8
1_0
  10
162
  20
-1313
  0
VERTEX
  8
1_0
  10
162
  20
-1306.6
  0
SEQEND
  0
POLYLINE
  8
1_0
  70
1
  66
1
  0
VERTEX
  8
1_0
  10
382
  20
-1361.2
  0
VERTEX
  8
1_0
  10
386.8
  20
-1366
  0
VERTEX
  8
1_0
  10
396.4
  20
-1366
  0
VERTEX
  8
1_0
  10
396.4
  20
-1359.6
  0
VERTEX
  8
1_0
  10
390
  20
-1359.6
  0
VERTEX
  8
1_0
  10
388.4
  20
-1358
  0
VERTEX
  8
1_0
  10
388.4
  20
-1350.8
  0
VERTEX
  8
1_0
  10
390
  20
-1349.2
  0
VERTEX
  8
1_0
  10
396.4
  20
-1349.2
  0
VERTEX
  8
1_0
  10
396.4
  20
-1342.8
  0
VERTEX
  8
1_0
  10
390
  20
-1342.8
  0
VERTEX
  8
1_0
  10
388.4
  20
-1341.2
  0
VERTEX
  8
1_0
  10
388.4
  20
-1334
  0
VERTEX
  8
1_0
  10
390
  20
-1332.4
  0
VERTEX
  8
1_0
  10
406
  20
-1332.4
  0
VERTEX
  8
1_0
  10
409.2
  20
-1335.6
  0
VERTEX
  8
1_0
  10
414
  20
-1335.6
  0
VERTEX
  8
1_0
  10
414
  20
-1330.8
  0
VERTEX
  8
1_0
  10
409.2
  20
-1326
  0
VERTEX
  8
1_0
  10
386.8
  20
-1326
  0
VERTEX
  8
1_0
  10
382
  20
-1330.8
  0
VERTEX
  8
1_0
  10
382
  20
-1361.2
  0
SEQEND
  0
POLYLINE
  8
1_0
  70
1
  66
1
  0
VERTEX
  8
1_0
  10
202
  20
-1273
  0
VERTEX
  8
1_0
  10
195.6
  20
-1273
  0
VERTEX
  8
1_0
  10
195.6
  20
-1301
  0
VERTEX
  8
1_0
  10
176.4
  20
-1273
  0
VERTEX
  8
1_0
  10
170
  20
-1273
  0
VERTEX
  8
1_0
  10
170
  20
-1313
  0
VERTEX
  8
1_0
  10
176.4
  20
-1313
  0
VERTEX
  8
1_0
  10
176.4
  20
-1285
  0
VERTEX
  8
1_0
  10
195.6
  20
-1313
  0
VERTEX
  8
1_0
  10
202
  20
-1313
  0
VERTEX
  8
1_0
  10
202
  20
-1273
  0
SEQEND
  0
POLYLINE
  8
1_0
  70
1
  66
1
  0
VERTEX
  8
1_0
  10
242
  20
-1291.8
  0
VERTEX
  8
1_0
  10
237.6
  20
-1287.4
  0
VERTEX
  8
1_0
  10
216.4
  20
-1287.4
  0
VERTEX
  8
1_0
  10
216.4
  20
-1279.4
  0
VERTEX
  8
1_0
  10
242
  20
-1279.4
  0
VERTEX
  8
1_0
  10
242
  20
-1273
  0
VERTEX
  8
1_0
  10
210
  20
-1273
  0
VERTEX
  8
1_0
  10
210
  20
-1293.8
  0
VERTEX
  8
1_0
  10
234.4
  20
-1293.8
  0
VERTEX
  8
1_0
  10
235.6
  20
-1295
  0
VERTEX
  8
1_0
  10
235.6
  20
-1305
  0
VERTEX
  8
1_0
  10
234
  20
-1306.6
  0
VERTEX
  8
1_0
  10
218
  20
-1306.6
  0
VERTEX
  8
1_0
  10
216.4
  20
-1305
  0
VERTEX
  8
1_0
  10
216.4
  20
-1301
  0
VERTEX
  8
1_0
  10
210
  20
-1301
  0
VERTEX
  8
1_0
  10
210
  20
-1308.2
  0
VERTEX
  8
1_0
  10
214.8
  20
-1313
  0
VERTEX
  8
1_0
  10
237.2
  20
-1313
  0
VERTEX
  8
1_0
  10
242
  20
-1308.2
  0
VERTEX
  8
1_0
  10
242
  20
-1291.8
  0
SEQEND
  0
POLYLINE
  8
1_0
  70
1
  66
1
  0
VERTEX
  8
1_0
  10
-669
  20
-1276
  0
VERTEX
  8
1_0
  10
-675.4
  20
-1276
  0
VERTEX
  8
1_0
  10
-675.4
  20
-1302.4
  0
VERTEX
  8
1_0
  10
-697
  20
-1276
  0
VERTEX
  8
1_0
  10
-701
  20
-1276
  0
VERTEX
  8
1_0
  10
-701
  20
-1316
  0
VERTEX
  8
1_0
  10
-694.6
  20
-1316
  0
VERTEX
  8
1_0
  10
-694.6
  20
-1289.6
  0
VERTEX
  8
1_0
  10
-673
  20
-1316
  0
VERTEX
  8
1_0
  10
-669
  20
-1316
  0
VERTEX
  8
1_0
  10
-669
  20
-1276
  0
SEQEND
  0
POLYLINE
  8
1_0
  70
1
  66
1
  0
VERTEX
  8
1_0
  10
168.8
  20
-1361.6
  0
VERTEX
  8
1_0
  10
156.4
  20
-1349.2
  0
VERTEX
  8
1_0
  10
156.4
  20
-1342.8
  0
VERTEX
  8
1_0
  10
148.4
  20
-1342.8
  0
VERTEX
  8
1_0
  10
148.4
  20
-1332.4
  0
VERTEX
  8
1_0
  10
156.4
  20
-1332.4
  0
VERTEX
  8
1_0
  10
156.4
  20
-1326
  0
VERTEX
  8
1_0
  10
142
  20
-1326
  0
VERTEX
  8
1_0
  10
142
  20
-1366
  0
VERTEX
  8
1_0
  10
148.4
  20
-1366
  0
VERTEX
  8
1_0
  10
148.4
  20
-1350.8
  0
VERTEX
  8
1_0
  10
163.6
  20
-1366
  0
VERTEX
  8
1_0
  10
168.8
  20
-1361.6
  0
SEQEND
  0
POLYLINE
  8
1_0
  70
1
  66
1
  0
VERTEX
  8
1_0
  10
-709
  20
-1309.6
  0
VERTEX
  8
1_0
  10
-717.8
  20
-1309.6
  0
VERTEX
  8
1_0
  10
-717.8
  20
-1282.4
  0
VERTEX
  8
1_0
  10
-709
  20
-1282.4
  0
VERTEX
  8
1_0
  10
-709
  20
-1276
  0
VERTEX
  8
1_0
  10
-733
  20
-1276
  0
VERTEX
  8
1_0
  10
-733
  20
-1282.4
  0
VERTEX
  8
1_0
  10
-724.2
  20
-1282.4
  0
VERTEX
  8
1_0
  10
-724.2
  20
-1309.6
  0
VERTEX
  8
1_0
  10
-733
  20
-1309.6
  0
VERTEX
  8
1_0
  10
-733
  20
-1316
  0
VERTEX
  8
1_0
  10
-709
  20
-1316
  0
VERTEX
  8
1_0
  10
-709
  20
-1309.6
  0
SEQEND
  0
POLYLINE
  8
1_0
  70
1
  66
1
  0
VERTEX
  8
1_0
  10
309
  20
-1306.6
  0
VERTEX
  8
1_0
  10
300.2
  20
-1306.6
  0
VERTEX
  8
1_0
  10
300.2
  20
-1273
  0
VERTEX
  8
1_0
  10
291.4
  20
-1273
  0
VERTEX
  8
1_0
  10
291.4
  20
-1279.4
  0
VERTEX
  8
1_0
  10
293.8
  20
-1279.4
  0
VERTEX
  8
1_0
  10
293.8
  20
-1306.6
  0
VERTEX
  8
1_0
  10
285
  20
-1306.6
  0
VERTEX
  8
1_0
  10
285
  20
-1313
  0
VERTEX
  8
1_0
  10
309
  20
-1313
  0
VERTEX
  8
1_0
  10
309
  20
-1306.6
  0
SEQEND
  0
POLYLINE
  8
1_0
  70
1
  66
1
  0
VERTEX
  8
1_0
  10
-218
  20
-748.5
  0
VERTEX
  8
1_0
  10
-239
  20
-748.5
  0
VERTEX
  8
1_0
  10
-239
  20
-782.5
  0
VERTEX
  8
1_0
  10
-218
  20
-782.5
  0
VERTEX
  8
1_0
  10
-218
  20
-748.5
  0
SEQEND
  0
POLYLINE
  8
1_0
  70
1
  66
1
  0
VERTEX
  8
1_0
  10
-402.5
  20
-872.5
  0
VERTEX
  8
1_0
  10
-381.5
  20
-872.5
  0
VERTEX
  8
1_0
  10
-381.5
  20
-906.5
  0
VERTEX
  8
1_0
  10
-402.5
  20
-906.5
  0
VERTEX
  8
1_0
  10
-402.5
  20
-872.5
  0
SEQEND
  0
POLYLINE
  8
1_0
  70
1
  66
1
  0
VERTEX
  8
1_0
  10
-139.5
  20
-820
  0
VERTEX
  8
1_0
  10
-139.5
  20
-855
  0
VERTEX
  8
1_0
  10
-119.5
  20
-855
  0
VERTEX
  8
1_0
  10
-119.5
  20
-820
  0
VERTEX
  8
1_0
  10
-139.5
  20
-820
  0
SEQEND
  0
POLYLINE
  8
1_0
  70
1
  66
1
  0
VERTEX
  8
1_0
  10
-380.5
  20
-812
  0
VERTEX
  8
1_0
  10
-380.5
  20
-847
  0
VERTEX
  8
1_0
  10
-360.5
  20
-847
  0
VERTEX
  8
1_0
  10
-360.5
  20
-812
  0
VERTEX
  8
1_0
  10
-380.5
  20
-812
  0
SEQEND
  0
POLYLINE
  8
1_0
  70
1
  66
1
  0
VERTEX
  8
1_0
  10
-622
  20
-861
  0
VERTEX
  8
1_0
  10
-622
  20
-896
  0
VERTEX
  8
1_0
  10
-602
  20
-896
  0
VERTEX
  8
1_0
  10
-602
  20
-861
  0
VERTEX
  8
1_0
  10
-622
  20
-861
  0
SEQEND
  0
POLYLINE
  8
1_0
  70
1
  66
1
  0
VERTEX
  8
1_0
  10
1410
  20
-825.8
  0
VERTEX
  8
1_0
  10
1404.4
  20
-821
  0
VERTEX
  8
1_0
  10
1395.6
  20
-821
  0
VERTEX
  8
1_0
  10
1395.6
  20
-827.4
  0
VERTEX
  8
1_0
  10
1402
  20
-827.4
  0
VERTEX
  8
1_0
  10
1403.6
  20
-829
  0
VERTEX
  8
1_0
  10
1403.6
  20
-853
  0
VERTEX
  8
1_0
  10
1402
  20
-854.6
  0
VERTEX
  8
1_0
  10
1395.6
  20
-854.6
  0
VERTEX
  8
1_0
  10
1395.6
  20
-861
  0
VERTEX
  8
1_0
  10
1405.2
  20
-861
  0
VERTEX
  8
1_0
  10
1410
  20
-856.2
  0
VERTEX
  8
1_0
  10
1410
  20
-825.8
  0
SEQEND
  0
POLYLINE
  8
1_0
  70
1
  66
1
  0
VERTEX
  8
1_0
  10
334
  20
-1330.8
  0
VERTEX
  8
1_0
  10
328.4
  20
-1326
  0
VERTEX
  8
1_0
  10
319.6
  20
-1326
  0
VERTEX
  8
1_0
  10
319.6
  20
-1332.4
  0
VERTEX
  8
1_0
  10
326
  20
-1332.4
  0
VERTEX
  8
1_0
  10
327.6
  20
-1334
  0
VERTEX
  8
1_0
  10
327.6
  20
-1358
  0
VERTEX
  8
1_0
  10
326
  20
-1359.6
  0
VERTEX
  8
1_0
  10
319.6
  20
-1359.6
  0
VERTEX
  8
1_0
  10
319.6
  20
-1366
  0
VERTEX
  8
1_0
  10
329.2
  20
-1366
  0
VERTEX
  8
1_0
  10
334
  20
-1361.2
  0
VERTEX
  8
1_0
  10
334
  20
-1330.8
  0
SEQEND
  0
POLYLINE
  8
1_0
  70
1
  66
1
  0
VERTEX
  8
1_0
  10
331.4
  20
-1306.6
  0
VERTEX
  8
1_0
  10
325
  20
-1306.6
  0
VERTEX
  8
1_0
  10
323.4
  20
-1305
  0
VERTEX
  8
1_0
  10
323.4
  20
-1281
  0
VERTEX
  8
1_0
  10
325
  20
-1279.4
  0
VERTEX
  8
1_0
  10
331.4
  20
-1279.4
  0
VERTEX
  8
1_0
  10
331.4
  20
-1273
  0
VERTEX
  8
1_0
  10
321.8
  20
-1273
  0
VERTEX
  8
1_0
  10
317
  20
-1277.8
  0
VERTEX
  8
1_0
  10
317
  20
-1308.2
  0
VERTEX
  8
1_0
  10
321.8
  20
-1313
  0
VERTEX
  8
1_0
  10
331.4
  20
-1313
  0
VERTEX
  8
1_0
  10
331.4
  20
-1306.6
  0
SEQEND
  0
POLYLINE
  8
1_0
  70
1
  66
1
  0
VERTEX
  8
1_0
  10
389
  20
-1277.8
  0
VERTEX
  8
1_0
  10
383.4
  20
-1273
  0
VERTEX
  8
1_0
  10
374.6
  20
-1273
  0
VERTEX
  8
1_0
  10
374.6
  20
-1279.4
  0
VERTEX
  8
1_0
  10
381
  20
-1279.4
  0
VERTEX
  8
1_0
  10
382.6
  20
-1281
  0
VERTEX
  8
1_0
  10
382.6
  20
-1305
  0
VERTEX
  8
1_0
  10
381
  20
-1306.6
  0
VERTEX
  8
1_0
  10
374.6
  20
-1306.6
  0
VERTEX
  8
1_0
  10
374.6
  20
-1313
  0
VERTEX
  8
1_0
  10
384.2
  20
-1313
  0
VERTEX
  8
1_0
  10
389
  20
-1308.2
  0
VERTEX
  8
1_0
  10
389
  20
-1277.8
  0
SEQEND
  0
POLYLINE
  8
1_0
  70
1
  66
1
  0
VERTEX
  8
1_0
  10
1392.4
  20
-854.6
  0
VERTEX
  8
1_0
  10
1386
  20
-854.6
  0
VERTEX
  8
1_0
  10
1384.4
  20
-853
  0
VERTEX
  8
1_0
  10
1384.4
  20
-829
  0
VERTEX
  8
1_0
  10
1386
  20
-827.4
  0
VERTEX
  8
1_0
  10
1392.4
  20
-827.4
  0
VERTEX
  8
1_0
  10
1392.4
  20
-821
  0
VERTEX
  8
1_0
  10
1382.8
  20
-821
  0
VERTEX
  8
1_0
  10
1378
  20
-825.8
  0
VERTEX
  8
1_0
  10
1378
  20
-856.2
  0
VERTEX
  8
1_0
  10
1382.8
  20
-861
  0
VERTEX
  8
1_0
  10
1392.4
  20
-861
  0
VERTEX
  8
1_0
  10
1392.4
  20
-854.6
  0
SEQEND
  0
POLYLINE
  8
1_0
  70
1
  66
1
  0
VERTEX
  8
1_0
  10
316.4
  20
-1359.6
  0
VERTEX
  8
1_0
  10
310
  20
-1359.6
  0
VERTEX
  8
1_0
  10
308.4
  20
-1358
  0
VERTEX
  8
1_0
  10
308.4
  20
-1334
  0
VERTEX
  8
1_0
  10
310
  20
-1332.4
  0
VERTEX
  8
1_0
  10
316.4
  20
-1332.4
  0
VERTEX
  8
1_0
  10
316.4
  20
-1326
  0
VERTEX
  8
1_0
  10
306.8
  20
-1326
  0
VERTEX
  8
1_0
  10
302
  20
-1330.8
  0
VERTEX
  8
1_0
  10
302
  20
-1361.2
  0
VERTEX
  8
1_0
  10
306.8
  20
-1366
  0
VERTEX
  8
1_0
  10
316.4
  20
-1366
  0
VERTEX
  8
1_0
  10
316.4
  20
-1359.6
  0
SEQEND
  0
POLYLINE
  8
1_0
  70
1
  66
1
  0
VERTEX
  8
1_0
  10
356.4
  20
-1359.6
  0
VERTEX
  8
1_0
  10
350
  20
-1359.6
  0
VERTEX
  8
1_0
  10
348.4
  20
-1358
  0
VERTEX
  8
1_0
  10
348.4
  20
-1334
  0
VERTEX
  8
1_0
  10
350
  20
-1332.4
  0
VERTEX
  8
1_0
  10
356.4
  20
-1332.4
  0
VERTEX
  8
1_0
  10
356.4
  20
-1326
  0
VERTEX
  8
1_0
  10
346.8
  20
-1326
  0
VERTEX
  8
1_0
  10
342
  20
-1330.8
  0
VERTEX
  8
1_0
  10
342
  20
-1361.2
  0
VERTEX
  8
1_0
  10
346.8
  20
-1366
  0
VERTEX
  8
1_0
  10
356.4
  20
-1366
  0
VERTEX
  8
1_0
  10
356.4
  20
-1359.6
  0
SEQEND
  0
POLYLINE
  8
1_0
  70
1
  66
1
  0
VERTEX
  8
1_0
  10
371.4
  20
-1306.6
  0
VERTEX
  8
1_0
  10
365
  20
-1306.6
  0
VERTEX
  8
1_0
  10
363.4
  20
-1305
  0
VERTEX
  8
1_0
  10
363.4
  20
-1281
  0
VERTEX
  8
1_0
  10
365
  20
-1279.4
  0
VERTEX
  8
1_0
  10
371.4
  20
-1279.4
  0
VERTEX
  8
1_0
  10
371.4
  20
-1273
  0
VERTEX
  8
1_0
  10
361.8
  20
-1273
  0
VERTEX
  8
1_0
  10
357
  20
-1277.8
  0
VERTEX
  8
1_0
  10
357
  20
-1308.2
  0
VERTEX
  8
1_0
  10
361.8
  20
-1313
  0
VERTEX
  8
1_0
  10
371.4
  20
-1313
  0
VERTEX
  8
1_0
  10
371.4
  20
-1306.6
  0
SEQEND
  0
POLYLINE
  8
1_0
  70
1
  66
1
  0
VERTEX
  8
1_0
  10
374
  20
-1330.8
  0
VERTEX
  8
1_0
  10
368.4
  20
-1326
  0
VERTEX
  8
1_0
  10
359.6
  20
-1326
  0
VERTEX
  8
1_0
  10
359.6
  20
-1332.4
  0
VERTEX
  8
1_0
  10
366
  20
-1332.4
  0
VERTEX
  8
1_0
  10
367.6
  20
-1334
  0
VERTEX
  8
1_0
  10
367.6
  20
-1358
  0
VERTEX
  8
1_0
  10
366
  20
-1359.6
  0
VERTEX
  8
1_0
  10
359.6
  20
-1359.6
  0
VERTEX
  8
1_0
  10
359.6
  20
-1366
  0
VERTEX
  8
1_0
  10
369.2
  20
-1366
  0
VERTEX
  8
1_0
  10
374
  20
-1361.2
  0
VERTEX
  8
1_0
  10
374
  20
-1330.8
  0
SEQEND
  0
POLYLINE
  8
1_0
  70
1
  66
1
  0
VERTEX
  8
1_0
  10
349
  20
-1277.8
  0
VERTEX
  8
1_0
  10
343.4
  20
-1273
  0
VERTEX
  8
1_0
  10
334.6
  20
-1273
  0
VERTEX
  8
1_0
  10
334.6
  20
-1279.4
  0
VERTEX
  8
1_0
  10
341
  20
-1279.4
  0
VERTEX
  8
1_0
  10
342.6
  20
-1281
  0
VERTEX
  8
1_0
  10
342.6
  20
-1305
  0
VERTEX
  8
1_0
  10
341
  20
-1306.6
  0
VERTEX
  8
1_0
  10
334.6
  20
-1306.6
  0
VERTEX
  8
1_0
  10
334.6
  20
-1313
  0
VERTEX
  8
1_0
  10
344.2
  20
-1313
  0
VERTEX
  8
1_0
  10
349
  20
-1308.2
  0
VERTEX
  8
1_0
  10
349
  20
-1277.8
  0
SEQEND
  0
POLYLINE
  8
1_0
  70
1
  66
1
  0
VERTEX
  8
1_0
  10
-223
  20
-744
  0
VERTEX
  8
1_0
  10
-234
  20
-744
  0
VERTEX
  8
1_0
  10
-234
  20
-787
  0
VERTEX
  8
1_0
  10
-223
  20
-787
  0
VERTEX
  8
1_0
  10
-223
  20
-744
  0
SEQEND
  0
POLYLINE
  8
1_0
  70
1
  66
1
  0
VERTEX
  8
1_0
  10
-397.5
  20
-868
  0
VERTEX
  8
1_0
  10
-386.5
  20
-868
  0
VERTEX
  8
1_0
  10
-386.5
  20
-911
  0
VERTEX
  8
1_0
  10
-397.5
  20
-911
  0
VERTEX
  8
1_0
  10
-397.5
  20
-868
  0
SEQEND
  0
POLYLINE
  8
1_0
  70
1
  66
1
  0
VERTEX
  8
1_0
  10
-366.5
  20
-863
  0
VERTEX
  8
1_0
  10
-366.5
  20
-883
  0
VERTEX
  8
1_0
  10
-333.5
  20
-883
  0
VERTEX
  8
1_0
  10
-333.5
  20
-863
  0
VERTEX
  8
1_0
  10
-366.5
  20
-863
  0
SEQEND
  0
POLYLINE
  8
1_0
  70
1
  66
1
  0
VERTEX
  8
1_0
  10
-366.5
  20
-863
  0
VERTEX
  8
1_0
  10
-366.5
  20
-883
  0
VERTEX
  8
1_0
  10
-333.5
  20
-883
  0
VERTEX
  8
1_0
  10
-333.5
  20
-863
  0
VERTEX
  8
1_0
  10
-366.5
  20
-863
  0
SEQEND
  0
POLYLINE
  8
1_0
  70
1
  66
1
  0
VERTEX
  8
1_0
  10
-366.5
  20
-863
  0
VERTEX
  8
1_0
  10
-366.5
  20
-883
  0
VERTEX
  8
1_0
  10
-333.5
  20
-883
  0
VERTEX
  8
1_0
  10
-333.5
  20
-863
  0
VERTEX
  8
1_0
  10
-366.5
  20
-863
  0
SEQEND
  0
POLYLINE
  8
1_0
  70
1
  66
1
  0
VERTEX
  8
1_0
  10
-139.5
  20
-772
  0
VERTEX
  8
1_0
  10
-139.5
  20
-805
  0
VERTEX
  8
1_0
  10
-119.5
  20
-805
  0
VERTEX
  8
1_0
  10
-119.5
  20
-772
  0
VERTEX
  8
1_0
  10
-139.5
  20
-772
  0
SEQEND
  0
POLYLINE
  8
1_0
  70
1
  66
1
  0
VERTEX
  8
1_0
  10
-380.5
  20
-764
  0
VERTEX
  8
1_0
  10
-380.5
  20
-797
  0
VERTEX
  8
1_0
  10
-360.5
  20
-797
  0
VERTEX
  8
1_0
  10
-360.5
  20
-764
  0
VERTEX
  8
1_0
  10
-380.5
  20
-764
  0
SEQEND
  0
POLYLINE
  8
1_0
  70
1
  66
1
  0
VERTEX
  8
1_0
  10
-622
  20
-813
  0
VERTEX
  8
1_0
  10
-622
  20
-846
  0
VERTEX
  8
1_0
  10
-602
  20
-846
  0
VERTEX
  8
1_0
  10
-602
  20
-813
  0
VERTEX
  8
1_0
  10
-622
  20
-813
  0
SEQEND
  0
POLYLINE
  8
1_0
  70
1
  66
1
  0
VERTEX
  8
1_0
  10
-157
  20
-880.5
  0
VERTEX
  8
1_0
  10
-131
  20
-880.5
  0
VERTEX
  8
1_0
  10
-131
  20
-904.5
  0
VERTEX
  8
1_0
  10
-157
  20
-904.5
  0
VERTEX
  8
1_0
  10
-157
  20
-880.5
  0
SEQEND
  0
POLYLINE
  8
1_0
  70
1
  66
1
  0
VERTEX
  8
1_0
  10
-639.5
  20
-921.5
  0
VERTEX
  8
1_0
  10
-613.5
  20
-921.5
  0
VERTEX
  8
1_0
  10
-613.5
  20
-945.5
  0
VERTEX
  8
1_0
  10
-639.5
  20
-945.5
  0
VERTEX
  8
1_0
  10
-639.5
  20
-921.5
  0
SEQEND
  0
POLYLINE
  8
1_0
  70
1
  66
1
  0
VERTEX
  8
1_0
  10
-125.5
  20
-863
  0
VERTEX
  8
1_0
  10
-125.5
  20
-883
  0
VERTEX
  8
1_0
  10
-95.5
  20
-883
  0
VERTEX
  8
1_0
  10
-95.5
  20
-863
  0
VERTEX
  8
1_0
  10
-125.5
  20
-863
  0
SEQEND
  0
POLYLINE
  8
1_0
  70
1
  66
1
  0
VERTEX
  8
1_0
  10
-608
  20
-901
  0
VERTEX
  8
1_0
  10
-608
  20
-921
  0
VERTEX
  8
1_0
  10
-578
  20
-921
  0
VERTEX
  8
1_0
  10
-578
  20
-901
  0
VERTEX
  8
1_0
  10
-608
  20
-901
  0
SEQEND
  0
POLYLINE
  8
1_0
  70
1
  66
1
  0
VERTEX
  8
1_0
  10
-125.5
  20
-863
  0
VERTEX
  8
1_0
  10
-125.5
  20
-883
  0
VERTEX
  8
1_0
  10
-95.5
  20
-883
  0
VERTEX
  8
1_0
  10
-95.5
  20
-863
  0
VERTEX
  8
1_0
  10
-125.5
  20
-863
  0
SEQEND
  0
POLYLINE
  8
1_0
  70
1
  66
1
  0
VERTEX
  8
1_0
  10
-608
  20
-901
  0
VERTEX
  8
1_0
  10
-608
  20
-921
  0
VERTEX
  8
1_0
  10
-578
  20
-921
  0
VERTEX
  8
1_0
  10
-578
  20
-901
  0
VERTEX
  8
1_0
  10
-608
  20
-901
  0
SEQEND
  0
POLYLINE
  8
1_0
  70
1
  66
1
  0
VERTEX
  8
1_0
  10
-814
  20
-947
  0
VERTEX
  8
1_0
  10
-789
  20
-947
  0
VERTEX
  8
1_0
  10
-789
  20
-922
  0
VERTEX
  8
1_0
  10
-814
  20
-922
  0
VERTEX
  8
1_0
  10
-814
  20
-947
  0
SEQEND
  0
POLYLINE
  8
1_0
  70
1
  66
1
  0
VERTEX
  8
1_0
  10
-814
  20
-1291
  0
VERTEX
  8
1_0
  10
-789
  20
-1291
  0
VERTEX
  8
1_0
  10
-789
  20
-1266
  0
VERTEX
  8
1_0
  10
-814
  20
-1266
  0
VERTEX
  8
1_0
  10
-814
  20
-1291
  0
SEQEND
  0
POLYLINE
  8
1_0
  70
1
  66
1
  0
VERTEX
  8
1_0
  10
-718.5
  20
-701
  0
VERTEX
  8
1_0
  10
-693.5
  20
-701
  0
VERTEX
  8
1_0
  10
-693.5
  20
-676
  0
VERTEX
  8
1_0
  10
-718.5
  20
-676
  0
VERTEX
  8
1_0
  10
-718.5
  20
-701
  0
SEQEND
  0
POLYLINE
  8
1_0
  70
1
  66
1
  0
VERTEX
  8
1_0
  10
596
  20
-701
  0
VERTEX
  8
1_0
  10
621
  20
-701
  0
VERTEX
  8
1_0
  10
621
  20
-676
  0
VERTEX
  8
1_0
  10
596
  20
-676
  0
VERTEX
  8
1_0
  10
596
  20
-701
  0
SEQEND
  0
POLYLINE
  8
1_0
  70
1
  66
1
  0
VERTEX
  8
1_0
  10
1091
  20
-703
  0
VERTEX
  8
1_0
  10
1116
  20
-703
  0
VERTEX
  8
1_0
  10
1116
  20
-678
  0
VERTEX
  8
1_0
  10
1091
  20
-678
  0
VERTEX
  8
1_0
  10
1091
  20
-703
  0
SEQEND
  0
POLYLINE
  8
1_0
  70
1
  66
1
  0
VERTEX
  8
1_0
  10
-70
  20
-799.5
  0
VERTEX
  8
1_0
  10
-95
  20
-799.5
  0
VERTEX
  8
1_0
  10
-95
  20
-824.5
  0
VERTEX
  8
1_0
  10
-70
  20
-824.5
  0
VERTEX
  8
1_0
  10
-70
  20
-799.5
  0
SEQEND
  0
POLYLINE
  8
1_0
  70
1
  66
1
  0
VERTEX
  8
1_0
  10
-311
  20
-799.5
  0
VERTEX
  8
1_0
  10
-336
  20
-799.5
  0
VERTEX
  8
1_0
  10
-336
  20
-824.5
  0
VERTEX
  8
1_0
  10
-311
  20
-824.5
  0
VERTEX
  8
1_0
  10
-311
  20
-799.5
  0
SEQEND
  0
POLYLINE
  8
1_0
  70
1
  66
1
  0
VERTEX
  8
1_0
  10
1495
  20
-1265.5
  0
VERTEX
  8
1_0
  10
1470
  20
-1265.5
  0
VERTEX
  8
1_0
  10
1470
  20
-1290.5
  0
VERTEX
  8
1_0
  10
1495
  20
-1290.5
  0
VERTEX
  8
1_0
  10
1495
  20
-1265.5
  0
SEQEND
  0
POLYLINE
  8
1_0
  70
1
  66
1
  0
VERTEX
  8
1_0
  10
1495
  20
-921.5
  0
VERTEX
  8
1_0
  10
1470
  20
-921.5
  0
VERTEX
  8
1_0
  10
1470
  20
-946.5
  0
VERTEX
  8
1_0
  10
1495
  20
-946.5
  0
VERTEX
  8
1_0
  10
1495
  20
-921.5
  0
SEQEND
  0
POLYLINE
  8
1_0
  70
1
  66
1
  0
VERTEX
  8
1_0
  10
-552.5
  20
-837.5
  0
VERTEX
  8
1_0
  10
-577.5
  20
-837.5
  0
VERTEX
  8
1_0
  10
-577.5
  20
-862.5
  0
VERTEX
  8
1_0
  10
-552.5
  20
-862.5
  0
VERTEX
  8
1_0
  10
-552.5
  20
-837.5
  0
SEQEND
  0
POLYLINE
  8
1_0
  70
1
  66
1
  0
VERTEX
  8
1_0
  10
-125.5
  20
-863
  0
VERTEX
  8
1_0
  10
-125.5
  20
-883
  0
VERTEX
  8
1_0
  10
-95.5
  20
-883
  0
VERTEX
  8
1_0
  10
-95.5
  20
-863
  0
VERTEX
  8
1_0
  10
-125.5
  20
-863
  0
SEQEND
  0
POLYLINE
  8
1_0
  70
1
  66
1
  0
VERTEX
  8
1_0
  10
-608
  20
-901
  0
VERTEX
  8
1_0
  10
-608
  20
-921
  0
VERTEX
  8
1_0
  10
-578
  20
-921
  0
VERTEX
  8
1_0
  10
-578
  20
-901
  0
VERTEX
  8
1_0
  10
-608
  20
-901
  0
SEQEND
  0
POLYLINE
  8
1_0
  70
1
  66
1
  0
VERTEX
  8
1_0
  10
-149
  20
-883
  0
VERTEX
  8
1_0
  10
-189.5
  20
-883
  0
VERTEX
  8
1_0
  10
-189.5
  20
-874
  0
VERTEX
  8
1_0
  10
-149
  20
-874
  0
VERTEX
  8
1_0
  10
-149
  20
-883
  0
SEQEND
  0
POLYLINE
  8
1_0
  70
1
  66
1
  0
VERTEX
  8
1_0
  10
-631.5
  20
-924
  0
VERTEX
  8
1_0
  10
-672
  20
-924
  0
VERTEX
  8
1_0
  10
-672
  20
-915
  0
VERTEX
  8
1_0
  10
-631.5
  20
-915
  0
VERTEX
  8
1_0
  10
-631.5
  20
-924
  0
SEQEND
  0
POLYLINE
  8
1_0
  70
1
  66
1
  0
VERTEX
  8
1_0
  10
-152
  20
-876
  0
VERTEX
  8
1_0
  10
-136
  20
-876
  0
VERTEX
  8
1_0
  10
-136
  20
-909
  0
VERTEX
  8
1_0
  10
-152
  20
-909
  0
VERTEX
  8
1_0
  10
-152
  20
-876
  0
SEQEND
  0
POLYLINE
  8
1_0
  70
1
  66
1
  0
VERTEX
  8
1_0
  10
-634.5
  20
-917
  0
VERTEX
  8
1_0
  10
-618.5
  20
-917
  0
VERTEX
  8
1_0
  10
-618.5
  20
-950
  0
VERTEX
  8
1_0
  10
-634.5
  20
-950
  0
VERTEX
  8
1_0
  10
-634.5
  20
-917
  0
SEQEND
  0
POLYLINE
  8
1_0
  70
1
  66
1
  0
VERTEX
  8
1_0
  10
-738
  20
-725.5
  0
VERTEX
  8
1_0
  10
-738
  20
-743.5
  0
VERTEX
  8
1_0
  10
-708
  20
-743.5
  0
VERTEX
  8
1_0
  10
-708
  20
-725.5
  0
VERTEX
  8
1_0
  10
-738
  20
-725.5
  0
SEQEND
  0
POLYLINE
  8
1_0
  70
1
  66
1
  0
VERTEX
  8
1_0
  10
-811
  20
-725.5
  0
VERTEX
  8
1_0
  10
-811
  20
-743.5
  0
VERTEX
  8
1_0
  10
-781
  20
-743.5
  0
VERTEX
  8
1_0
  10
-781
  20
-725.5
  0
VERTEX
  8
1_0
  10
-811
  20
-725.5
  0
SEQEND
  0
POLYLINE
  8
1_0
  70
1
  66
1
  0
VERTEX
  8
1_0
  10
1064.5
  20
-698
  0
VERTEX
  8
1_0
  10
1064.5
  20
-668
  0
VERTEX
  8
1_0
  10
1046.5
  20
-668
  0
VERTEX
  8
1_0
  10
1046.5
  20
-698
  0
VERTEX
  8
1_0
  10
1064.5
  20
-698
  0
SEQEND
  0
POLYLINE
  8
1_0
  70
1
  66
1
  0
VERTEX
  8
1_0
  10
645.5
  20
-699.5
  0
VERTEX
  8
1_0
  10
663.5
  20
-699.5
  0
VERTEX
  8
1_0
  10
663.5
  20
-669.5
  0
VERTEX
  8
1_0
  10
645.5
  20
-669.5
  0
VERTEX
  8
1_0
  10
645.5
  20
-699.5
  0
SEQEND
  0
POLYLINE
  8
1_0
  70
1
  66
1
  0
VERTEX
  8
1_0
  10
-219
  20
-754
  0
VERTEX
  8
1_0
  10
-177.5
  20
-754
  0
VERTEX
  8
1_0
  10
-177.5
  20
-748
  0
VERTEX
  8
1_0
  10
-219
  20
-748
  0
VERTEX
  8
1_0
  10
-219
  20
-754
  0
SEQEND
  0
POLYLINE
  8
1_0
  70
1
  66
1
  0
VERTEX
  8
1_0
  10
-219
  20
-754
  0
VERTEX
  8
1_0
  10
-177.5
  20
-754
  0
VERTEX
  8
1_0
  10
-177.5
  20
-748
  0
VERTEX
  8
1_0
  10
-219
  20
-748
  0
VERTEX
  8
1_0
  10
-219
  20
-754
  0
SEQEND
  0
POLYLINE
  8
1_0
  70
1
  66
1
  0
VERTEX
  8
1_0
  10
-344
  20
-888
  0
VERTEX
  8
1_0
  10
-381
  20
-888
  0
VERTEX
  8
1_0
  10
-381
  20
-878
  0
VERTEX
  8
1_0
  10
-344
  20
-878
  0
VERTEX
  8
1_0
  10
-344
  20
-888
  0
SEQEND
  0
POLYLINE
  8
1_0
  70
1
  66
1
  0
VERTEX
  8
1_0
  10
-519.5
  20
-679.2
  0
VERTEX
  8
1_0
  10
-519.5
  20
-685.44
  0
VERTEX
  8
1_0
  10
-515.34
  20
-685.44
  0
VERTEX
  8
1_0
  10
-515.34
  20
-683.1
  0
VERTEX
  8
1_0
  10
-511.7
  20
-683.1
  0
VERTEX
  8
1_0
  10
-510.66
  20
-684.14
  0
VERTEX
  8
1_0
  10
-510.66
  20
-694.8
  0
VERTEX
  8
1_0
  10
-511.7
  20
-695.84
  0
VERTEX
  8
1_0
  10
-527.3
  20
-695.84
  0
VERTEX
  8
1_0
  10
-528.34
  20
-694.8
  0
VERTEX
  8
1_0
  10
-528.34
  20
-684.4
  0
VERTEX
  8
1_0
  10
-527.3
  20
-683.36
  0
VERTEX
  8
1_0
  10
-524.7
  20
-683.36
  0
VERTEX
  8
1_0
  10
-524.7
  20
-679.2
  0
VERTEX
  8
1_0
  10
-529.38
  20
-679.2
  0
VERTEX
  8
1_0
  10
-532.5
  20
-682.32
  0
VERTEX
  8
1_0
  10
-532.5
  20
-696.88
  0
VERTEX
  8
1_0
  10
-529.38
  20
-700
  0
VERTEX
  8
1_0
  10
-509.62
  20
-700
  0
VERTEX
  8
1_0
  10
-506.5
  20
-696.88
  0
VERTEX
  8
1_0
  10
-506.5
  20
-682.32
  0
VERTEX
  8
1_0
  10
-509.62
  20
-679.2
  0
VERTEX
  8
1_0
  10
-519.5
  20
-679.2
  0
SEQEND
  0
POLYLINE
  8
1_0
  70
1
  66
1
  0
VERTEX
  8
1_0
  10
410.5
  20
-679.4
  0
VERTEX
  8
1_0
  10
410.5
  20
-683.56
  0
VERTEX
  8
1_0
  10
427.66
  20
-683.56
  0
VERTEX
  8
1_0
  10
410.5
  20
-697.6
  0
VERTEX
  8
1_0
  10
410.5
  20
-700.2
  0
VERTEX
  8
1_0
  10
436.5
  20
-700.2
  0
VERTEX
  8
1_0
  10
436.5
  20
-696.04
  0
VERTEX
  8
1_0
  10
419.34
  20
-696.04
  0
VERTEX
  8
1_0
  10
436.5
  20
-682
  0
VERTEX
  8
1_0
  10
436.5
  20
-679.4
  0
VERTEX
  8
1_0
  10
410.5
  20
-679.4
  0
SEQEND
  0
POLYLINE
  8
1_0
  70
1
  66
1
  0
VERTEX
  8
1_0
  10
-188
  20
-697.4
  0
VERTEX
  8
1_0
  10
-188
  20
-701.56
  0
VERTEX
  8
1_0
  10
-174.48
  20
-701.56
  0
VERTEX
  8
1_0
  10
-168.24
  20
-707.8
  0
VERTEX
  8
1_0
  10
-174.48
  20
-714.04
  0
VERTEX
  8
1_0
  10
-188
  20
-714.04
  0
VERTEX
  8
1_0
  10
-188
  20
-718.2
  0
VERTEX
  8
1_0
  10
-172.4
  20
-718.2
  0
VERTEX
  8
1_0
  10
-162
  20
-707.8
  0
VERTEX
  8
1_0
  10
-172.4
  20
-697.4
  0
VERTEX
  8
1_0
  10
-188
  20
-697.4
  0
SEQEND
  0
POLYLINE
  8
1_0
  70
1
  66
1
  0
VERTEX
  8
1_0
  10
-166.16
  20
-645.4
  0
VERTEX
  8
1_0
  10
-166.16
  20
-662.04
  0
VERTEX
  8
1_0
  10
-171.36
  20
-655.11
  0
VERTEX
  8
1_0
  10
-178.64
  20
-645.4
  0
VERTEX
  8
1_0
  10
-184.88
  20
-645.4
  0
VERTEX
  8
1_0
  10
-188
  20
-648.52
  0
VERTEX
  8
1_0
  10
-188
  20
-663.08
  0
VERTEX
  8
1_0
  10
-184.88
  20
-666.2
  0
VERTEX
  8
1_0
  10
-180.2
  20
-666.2
  0
VERTEX
  8
1_0
  10
-180.2
  20
-662.04
  0
VERTEX
  8
1_0
  10
-182.8
  20
-662.04
  0
VERTEX
  8
1_0
  10
-183.84
  20
-661
  0
VERTEX
  8
1_0
  10
-183.84
  20
-650.6
  0
VERTEX
  8
1_0
  10
-182.8
  20
-649.56
  0
VERTEX
  8
1_0
  10
-180.72
  20
-649.56
  0
VERTEX
  8
1_0
  10
-168.24
  20
-666.2
  0
VERTEX
  8
1_0
  10
-162
  20
-666.2
  0
VERTEX
  8
1_0
  10
-162
  20
-645.4
  0
VERTEX
  8
1_0
  10
-166.16
  20
-645.4
  0
SEQEND
  0
POLYLINE
  8
1_0
  70
1
  66
1
  0
VERTEX
  8
1_0
  10
-38
  20
-706.9
  0
VERTEX
  8
1_0
  10
-38
  20
-711.06
  0
VERTEX
  8
1_0
  10
-24.48
  20
-711.06
  0
VERTEX
  8
1_0
  10
-18.24
  20
-717.3
  0
VERTEX
  8
1_0
  10
-24.48
  20
-723.54
  0
VERTEX
  8
1_0
  10
-38
  20
-723.54
  0
VERTEX
  8
1_0
  10
-38
  20
-727.7
  0
VERTEX
  8
1_0
  10
-22.4
  20
-727.7
  0
VERTEX
  8
1_0
  10
-12
  20
-717.3
  0
VERTEX
  8
1_0
  10
-22.4
  20
-706.9
  0
VERTEX
  8
1_0
  10
-38
  20
-706.9
  0
SEQEND
  0
POLYLINE
  8
1_0
  70
1
  66
1
  0
VERTEX
  8
1_0
  10
123.42
  20
-654.4
  0
VERTEX
  8
1_0
  10
123.42
  20
-660.64
  0
VERTEX
  8
1_0
  10
112.5
  20
-660.64
  0
VERTEX
  8
1_0
  10
112.5
  20
-664.8
  0
VERTEX
  8
1_0
  10
123.42
  20
-664.8
  0
VERTEX
  8
1_0
  10
123.42
  20
-671.04
  0
VERTEX
  8
1_0
  10
112.5
  20
-671.04
  0
VERTEX
  8
1_0
  10
112.5
  20
-675.2
  0
VERTEX
  8
1_0
  10
127.58
  20
-675.2
  0
VERTEX
  8
1_0
  10
127.58
  20
-664.8
  0
VERTEX
  8
1_0
  10
138.5
  20
-664.8
  0
VERTEX
  8
1_0
  10
138.5
  20
-660.64
  0
VERTEX
  8
1_0
  10
127.58
  20
-660.64
  0
VERTEX
  8
1_0
  10
127.58
  20
-654.4
  0
VERTEX
  8
1_0
  10
123.42
  20
-654.4
  0
SEQEND
  0
POLYLINE
  8
1_0
  70
1
  66
1
  0
VERTEX
  8
1_0
  10
-23.44
  20
-654.9
  0
VERTEX
  8
1_0
  10
-25
  20
-656.46
  0
VERTEX
  8
1_0
  10
-26.56
  20
-654.9
  0
VERTEX
  8
1_0
  10
-34.88
  20
-654.9
  0
VERTEX
  8
1_0
  10
-38
  20
-658.02
  0
VERTEX
  8
1_0
  10
-38
  20
-672.58
  0
VERTEX
  8
1_0
  10
-34.88
  20
-675.7
  0
VERTEX
  8
1_0
  10
-30.2
  20
-675.7
  0
VERTEX
  8
1_0
  10
-30.2
  20
-671.54
  0
VERTEX
  8
1_0
  10
-32.8
  20
-671.54
  0
VERTEX
  8
1_0
  10
-33.84
  20
-670.5
  0
VERTEX
  8
1_0
  10
-33.84
  20
-660.1
  0
VERTEX
  8
1_0
  10
-32.8
  20
-659.06
  0
VERTEX
  8
1_0
  10
-28.12
  20
-659.06
  0
VERTEX
  8
1_0
  10
-27.08
  20
-660.1
  0
VERTEX
  8
1_0
  10
-27.08
  20
-668.94
  0
VERTEX
  8
1_0
  10
-22.92
  20
-668.94
  0
VERTEX
  8
1_0
  10
-22.92
  20
-660.1
  0
VERTEX
  8
1_0
  10
-21.88
  20
-659.06
  0
VERTEX
  8
1_0
  10
-17.2
  20
-659.06
  0
VERTEX
  8
1_0
  10
-16.16
  20
-660.1
  0
VERTEX
  8
1_0
  10
-16.16
  20
-670.5
  0
VERTEX
  8
1_0
  10
-17.2
  20
-671.54
  0
VERTEX
  8
1_0
  10
-19.8
  20
-671.54
  0
VERTEX
  8
1_0
  10
-19.8
  20
-675.7
  0
VERTEX
  8
1_0
  10
-15.12
  20
-675.7
  0
VERTEX
  8
1_0
  10
-12
  20
-672.58
  0
VERTEX
  8
1_0
  10
-12
  20
-658.02
  0
VERTEX
  8
1_0
  10
-15.12
  20
-654.9
  0
VERTEX
  8
1_0
  10
-23.44
  20
-654.9
  0
SEQEND
  0
POLYLINE
  8
1_0
  70
1
  66
1
  0
VERTEX
  8
1_0
  10
-532.5
  20
-705.2
  0
VERTEX
  8
1_0
  10
-532.5
  20
-709.36
  0
VERTEX
  8
1_0
  10
-518.98
  20
-709.36
  0
VERTEX
  8
1_0
  10
-512.74
  20
-715.6
  0
VERTEX
  8
1_0
  10
-518.98
  20
-721.84
  0
VERTEX
  8
1_0
  10
-532.5
  20
-721.84
  0
VERTEX
  8
1_0
  10
-532.5
  20
-726
  0
VERTEX
  8
1_0
  10
-516.9
  20
-726
  0
VERTEX
  8
1_0
  10
-506.5
  20
-715.6
  0
VERTEX
  8
1_0
  10
-516.9
  20
-705.2
  0
VERTEX
  8
1_0
  10
-532.5
  20
-705.2
  0
SEQEND
  0
POLYLINE
  8
1_0
  70
1
  66
1
  0
VERTEX
  8
1_0
  10
423.5
  20
-705.4
  0
VERTEX
  8
1_0
  10
423.5
  20
-711.64
  0
VERTEX
  8
1_0
  10
427.66
  20
-711.64
  0
VERTEX
  8
1_0
  10
427.66
  20
-709.3
  0
VERTEX
  8
1_0
  10
431.3
  20
-709.3
  0
VERTEX
  8
1_0
  10
432.34
  20
-710.34
  0
VERTEX
  8
1_0
  10
432.34
  20
-721
  0
VERTEX
  8
1_0
  10
431.3
  20
-722.04
  0
VERTEX
  8
1_0
  10
415.7
  20
-722.04
  0
VERTEX
  8
1_0
  10
414.66
  20
-721
  0
VERTEX
  8
1_0
  10
414.66
  20
-710.6
  0
VERTEX
  8
1_0
  10
415.7
  20
-709.56
  0
VERTEX
  8
1_0
  10
418.3
  20
-709.56
  0
VERTEX
  8
1_0
  10
418.3
  20
-705.4
  0
VERTEX
  8
1_0
  10
413.62
  20
-705.4
  0
VERTEX
  8
1_0
  10
410.5
  20
-708.52
  0
VERTEX
  8
1_0
  10
410.5
  20
-723.08
  0
VERTEX
  8
1_0
  10
413.62
  20
-726.2
  0
VERTEX
  8
1_0
  10
433.38
  20
-726.2
  0
VERTEX
  8
1_0
  10
436.5
  20
-723.08
  0
VERTEX
  8
1_0
  10
436.5
  20
-708.52
  0
VERTEX
  8
1_0
  10
433.38
  20
-705.4
  0
VERTEX
  8
1_0
  10
423.5
  20
-705.4
  0
SEQEND
  0
POLYLINE
  8
1_0
  70
1
  66
1
  0
VERTEX
  8
1_0
  10
112.5
  20
-706.4
  0
VERTEX
  8
1_0
  10
112.5
  20
-710.56
  0
VERTEX
  8
1_0
  10
126.02
  20
-710.56
  0
VERTEX
  8
1_0
  10
132.26
  20
-716.8
  0
VERTEX
  8
1_0
  10
126.02
  20
-723.04
  0
VERTEX
  8
1_0
  10
112.5
  20
-723.04
  0
VERTEX
  8
1_0
  10
112.5
  20
-727.2
  0
VERTEX
  8
1_0
  10
128.1
  20
-727.2
  0
VERTEX
  8
1_0
  10
138.5
  20
-716.8
  0
VERTEX
  8
1_0
  10
128.1
  20
-706.4
  0
VERTEX
  8
1_0
  10
112.5
  20
-706.4
  0
SEQEND
  0
POLYLINE
  8
1_0
  70
1
  66
1
  0
VERTEX
  8
1_0
  10
125.5
  20
-680.4
  0
VERTEX
  8
1_0
  10
125.5
  20
-686.64
  0
VERTEX
  8
1_0
  10
129.66
  20
-686.64
  0
VERTEX
  8
1_0
  10
129.66
  20
-684.3
  0
VERTEX
  8
1_0
  10
133.3
  20
-684.3
  0
VERTEX
  8
1_0
  10
134.34
  20
-685.34
  0
VERTEX
  8
1_0
  10
134.34
  20
-696
  0
VERTEX
  8
1_0
  10
133.3
  20
-697.04
  0
VERTEX
  8
1_0
  10
117.7
  20
-697.04
  0
VERTEX
  8
1_0
  10
116.66
  20
-696
  0
VERTEX
  8
1_0
  10
116.66
  20
-685.6
  0
VERTEX
  8
1_0
  10
117.7
  20
-684.56
  0
VERTEX
  8
1_0
  10
120.3
  20
-684.56
  0
VERTEX
  8
1_0
  10
120.3
  20
-680.4
  0
VERTEX
  8
1_0
  10
115.62
  20
-680.4
  0
VERTEX
  8
1_0
  10
112.5
  20
-683.52
  0
VERTEX
  8
1_0
  10
112.5
  20
-698.08
  0
VERTEX
  8
1_0
  10
115.62
  20
-701.2
  0
VERTEX
  8
1_0
  10
135.38
  20
-701.2
  0
VERTEX
  8
1_0
  10
138.5
  20
-698.08
  0
VERTEX
  8
1_0
  10
138.5
  20
-683.52
  0
VERTEX
  8
1_0
  10
135.38
  20
-680.4
  0
VERTEX
  8
1_0
  10
125.5
  20
-680.4
  0
SEQEND
  0
POLYLINE
  8
1_0
  70
1
  66
1
  0
VERTEX
  8
1_0
  10
-175
  20
-671.4
  0
VERTEX
  8
1_0
  10
-175
  20
-677.64
  0
VERTEX
  8
1_0
  10
-170.84
  20
-677.64
  0
VERTEX
  8
1_0
  10
-170.84
  20
-675.3
  0
VERTEX
  8
1_0
  10
-167.2
  20
-675.3
  0
VERTEX
  8
1_0
  10
-166.16
  20
-676.34
  0
VERTEX
  8
1_0
  10
-166.16
  20
-687
  0
VERTEX
  8
1_0
  10
-167.2
  20
-688.04
  0
VERTEX
  8
1_0
  10
-182.8
  20
-688.04
  0
VERTEX
  8
1_0
  10
-183.84
  20
-687
  0
VERTEX
  8
1_0
  10
-183.84
  20
-676.6
  0
VERTEX
  8
1_0
  10
-182.8
  20
-675.56
  0
VERTEX
  8
1_0
  10
-180.2
  20
-675.56
  0
VERTEX
  8
1_0
  10
-180.2
  20
-671.4
  0
VERTEX
  8
1_0
  10
-184.88
  20
-671.4
  0
VERTEX
  8
1_0
  10
-188
  20
-674.52
  0
VERTEX
  8
1_0
  10
-188
  20
-689.08
  0
VERTEX
  8
1_0
  10
-184.88
  20
-692.2
  0
VERTEX
  8
1_0
  10
-165.12
  20
-692.2
  0
VERTEX
  8
1_0
  10
-162
  20
-689.08
  0
VERTEX
  8
1_0
  10
-162
  20
-674.52
  0
VERTEX
  8
1_0
  10
-165.12
  20
-671.4
  0
VERTEX
  8
1_0
  10
-175
  20
-671.4
  0
SEQEND
  0
POLYLINE
  8
1_0
  70
1
  66
1
  0
VERTEX
  8
1_0
  10
-25
  20
-680.9
  0
VERTEX
  8
1_0
  10
-25
  20
-687.14
  0
VERTEX
  8
1_0
  10
-20.84
  20
-687.14
  0
VERTEX
  8
1_0
  10
-20.84
  20
-684.8
  0
VERTEX
  8
1_0
  10
-17.2
  20
-684.8
  0
VERTEX
  8
1_0
  10
-16.16
  20
-685.84
  0
VERTEX
  8
1_0
  10
-16.16
  20
-696.5
  0
VERTEX
  8
1_0
  10
-17.2
  20
-697.54
  0
VERTEX
  8
1_0
  10
-32.8
  20
-697.54
  0
VERTEX
  8
1_0
  10
-33.84
  20
-696.5
  0
VERTEX
  8
1_0
  10
-33.84
  20
-686.1
  0
VERTEX
  8
1_0
  10
-32.8
  20
-685.06
  0
VERTEX
  8
1_0
  10
-30.2
  20
-685.06
  0
VERTEX
  8
1_0
  10
-30.2
  20
-680.9
  0
VERTEX
  8
1_0
  10
-34.88
  20
-680.9
  0
VERTEX
  8
1_0
  10
-38
  20
-684.02
  0
VERTEX
  8
1_0
  10
-38
  20
-698.58
  0
VERTEX
  8
1_0
  10
-34.88
  20
-701.7
  0
VERTEX
  8
1_0
  10
-15.12
  20
-701.7
  0
VERTEX
  8
1_0
  10
-12
  20
-698.58
  0
VERTEX
  8
1_0
  10
-12
  20
-684.02
  0
VERTEX
  8
1_0
  10
-15.12
  20
-680.9
  0
VERTEX
  8
1_0
  10
-25
  20
-680.9
  0
SEQEND
  0
POLYLINE
  8
1_0
  70
1
  66
1
  0
VERTEX
  8
1_0
  10
262.5
  20
-703.4
  0
VERTEX
  8
1_0
  10
262.5
  20
-707.56
  0
VERTEX
  8
1_0
  10
276.02
  20
-707.56
  0
VERTEX
  8
1_0
  10
282.26
  20
-713.8
  0
VERTEX
  8
1_0
  10
276.02
  20
-720.04
  0
VERTEX
  8
1_0
  10
262.5
  20
-720.04
  0
VERTEX
  8
1_0
  10
262.5
  20
-724.2
  0
VERTEX
  8
1_0
  10
278.1
  20
-724.2
  0
VERTEX
  8
1_0
  10
288.5
  20
-713.8
  0
VERTEX
  8
1_0
  10
278.1
  20
-703.4
  0
VERTEX
  8
1_0
  10
262.5
  20
-703.4
  0
SEQEND
  0
POLYLINE
  8
1_0
  70
1
  66
1
  0
VERTEX
  8
1_0
  10
-220.5
  20
-750.5
  0
VERTEX
  8
1_0
  10
-236.5
  20
-750.5
  0
VERTEX
  8
1_0
  10
-236.5
  20
-780.5
  0
VERTEX
  8
1_0
  10
-220.5
  20
-780.5
  0
VERTEX
  8
1_0
  10
-220.5
  20
-750.5
  0
SEQEND
  0
POLYLINE
  8
1_0
  70
1
  66
1
  0
VERTEX
  8
1_0
  10
-400
  20
-874.5
  0
VERTEX
  8
1_0
  10
-384
  20
-874.5
  0
VERTEX
  8
1_0
  10
-384
  20
-904.5
  0
VERTEX
  8
1_0
  10
-400
  20
-904.5
  0
VERTEX
  8
1_0
  10
-400
  20
-874.5
  0
SEQEND
  0
POLYLINE
  8
1_0
  70
1
  66
1
  0
VERTEX
  8
1_0
  10
-364.5
  20
-865
  0
VERTEX
  8
1_0
  10
-364.5
  20
-881
  0
VERTEX
  8
1_0
  10
-335.5
  20
-881
  0
VERTEX
  8
1_0
  10
-335.5
  20
-865
  0
VERTEX
  8
1_0
  10
-364.5
  20
-865
  0
SEQEND
  0
POLYLINE
  8
1_0
  70
1
  66
1
  0
VERTEX
  8
1_0
  10
-231
  20
-748
  0
VERTEX
  8
1_0
  10
-240
  20
-748
  0
VERTEX
  8
1_0
  10
-240
  20
-783
  0
VERTEX
  8
1_0
  10
-231
  20
-783
  0
VERTEX
  8
1_0
  10
-231
  20
-748
  0
SEQEND
  0
POLYLINE
  8
1_0
  70
1
  66
1
  0
VERTEX
  8
1_0
  10
-217
  20
-748
  0
VERTEX
  8
1_0
  10
-226
  20
-748
  0
VERTEX
  8
1_0
  10
-226
  20
-783
  0
VERTEX
  8
1_0
  10
-217
  20
-783
  0
VERTEX
  8
1_0
  10
-217
  20
-748
  0
SEQEND
  0
POLYLINE
  8
1_0
  70
1
  66
1
  0
VERTEX
  8
1_0
  10
-389.5
  20
-872
  0
VERTEX
  8
1_0
  10
-380.5
  20
-872
  0
VERTEX
  8
1_0
  10
-380.5
  20
-907
  0
VERTEX
  8
1_0
  10
-389.5
  20
-907
  0
VERTEX
  8
1_0
  10
-389.5
  20
-872
  0
SEQEND
  0
POLYLINE
  8
1_0
  70
1
  66
1
  0
VERTEX
  8
1_0
  10
-403.5
  20
-872
  0
VERTEX
  8
1_0
  10
-394.5
  20
-872
  0
VERTEX
  8
1_0
  10
-394.5
  20
-907
  0
VERTEX
  8
1_0
  10
-403.5
  20
-907
  0
VERTEX
  8
1_0
  10
-403.5
  20
-872
  0
SEQEND
  0
POLYLINE
  8
1_0
  70
1
  66
1
  0
VERTEX
  8
1_0
  10
-218
  20
-753
  0
VERTEX
  8
1_0
  10
-178.5
  20
-753
  0
VERTEX
  8
1_0
  10
-178.5
  20
-749
  0
VERTEX
  8
1_0
  10
-218
  20
-749
  0
VERTEX
  8
1_0
  10
-218
  20
-753
  0
SEQEND
  0
POLYLINE
  8
1_0
  70
1
  66
1
  0
VERTEX
  8
1_0
  10
-130.5
  20
-821
  0
VERTEX
  8
1_0
  10
-130.5
  20
-854
  0
VERTEX
  8
1_0
  10
-120.5
  20
-854
  0
VERTEX
  8
1_0
  10
-120.5
  20
-821
  0
VERTEX
  8
1_0
  10
-130.5
  20
-821
  0
SEQEND
  0
POLYLINE
  8
1_0
  70
1
  66
1
  0
VERTEX
  8
1_0
  10
-371.5
  20
-813
  0
VERTEX
  8
1_0
  10
-371.5
  20
-846
  0
VERTEX
  8
1_0
  10
-361.5
  20
-846
  0
VERTEX
  8
1_0
  10
-361.5
  20
-813
  0
VERTEX
  8
1_0
  10
-371.5
  20
-813
  0
SEQEND
  0
POLYLINE
  8
1_0
  70
1
  66
1
  0
VERTEX
  8
1_0
  10
-613
  20
-862
  0
VERTEX
  8
1_0
  10
-613
  20
-895
  0
VERTEX
  8
1_0
  10
-603
  20
-895
  0
VERTEX
  8
1_0
  10
-603
  20
-862
  0
VERTEX
  8
1_0
  10
-613
  20
-862
  0
SEQEND
  0
POLYLINE
  8
1_0
  70
1
  66
1
  0
VERTEX
  8
1_0
  10
-123.5
  20
-865
  0
VERTEX
  8
1_0
  10
-123.5
  20
-881
  0
VERTEX
  8
1_0
  10
-97.5
  20
-881
  0
VERTEX
  8
1_0
  10
-97.5
  20
-865
  0
VERTEX
  8
1_0
  10
-123.5
  20
-865
  0
SEQEND
  0
POLYLINE
  8
1_0
  70
1
  66
1
  0
VERTEX
  8
1_0
  10
-606
  20
-903
  0
VERTEX
  8
1_0
  10
-606
  20
-919
  0
VERTEX
  8
1_0
  10
-580
  20
-919
  0
VERTEX
  8
1_0
  10
-580
  20
-903
  0
VERTEX
  8
1_0
  10
-606
  20
-903
  0
SEQEND
  0
POLYLINE
  8
1_0
  70
1
  66
1
  0
VERTEX
  8
1_0
  10
-510.66
  20
-658.4
  0
VERTEX
  8
1_0
  10
-510.66
  20
-664.12
  0
VERTEX
  8
1_0
  10
-532.5
  20
-664.12
  0
VERTEX
  8
1_0
  10
-532.5
  20
-669.84
  0
VERTEX
  8
1_0
  10
-528.34
  20
-669.84
  0
VERTEX
  8
1_0
  10
-528.34
  20
-668.28
  0
VERTEX
  8
1_0
  10
-510.66
  20
-668.28
  0
VERTEX
  8
1_0
  10
-510.66
  20
-674
  0
VERTEX
  8
1_0
  10
-506.5
  20
-674
  0
VERTEX
  8
1_0
  10
-506.5
  20
-658.4
  0
VERTEX
  8
1_0
  10
-510.66
  20
-658.4
  0
SEQEND
  0
POLYLINE
  8
1_0
  70
1
  66
1
  0
VERTEX
  8
1_0
  10
-233.5
  20
-748
  0
VERTEX
  8
1_0
  10
-240
  20
-748
  0
VERTEX
  8
1_0
  10
-240
  20
-783
  0
VERTEX
  8
1_0
  10
-233.5
  20
-783
  0
VERTEX
  8
1_0
  10
-233.5
  20
-748
  0
SEQEND
  0
POLYLINE
  8
1_0
  70
1
  66
1
  0
VERTEX
  8
1_0
  10
-217
  20
-748
  0
VERTEX
  8
1_0
  10
-223.5
  20
-748
  0
VERTEX
  8
1_0
  10
-223.5
  20
-783
  0
VERTEX
  8
1_0
  10
-217
  20
-783
  0
VERTEX
  8
1_0
  10
-217
  20
-748
  0
SEQEND
  0
POLYLINE
  8
1_0
  70
1
  66
1
  0
VERTEX
  8
1_0
  10
-387
  20
-872
  0
VERTEX
  8
1_0
  10
-380.5
  20
-872
  0
VERTEX
  8
1_0
  10
-380.5
  20
-907
  0
VERTEX
  8
1_0
  10
-387
  20
-907
  0
VERTEX
  8
1_0
  10
-387
  20
-872
  0
SEQEND
  0
POLYLINE
  8
1_0
  70
1
  66
1
  0
VERTEX
  8
1_0
  10
-403.5
  20
-872
  0
VERTEX
  8
1_0
  10
-397
  20
-872
  0
VERTEX
  8
1_0
  10
-397
  20
-907
  0
VERTEX
  8
1_0
  10
-403.5
  20
-907
  0
VERTEX
  8
1_0
  10
-403.5
  20
-872
  0
SEQEND
  0
POLYLINE
  8
1_0
  70
1
  66
1
  0
VERTEX
  8
1_0
  10
-154.5
  20
-882.5
  0
VERTEX
  8
1_0
  10
-133.5
  20
-882.5
  0
VERTEX
  8
1_0
  10
-133.5
  20
-902.5
  0
VERTEX
  8
1_0
  10
-154.5
  20
-902.5
  0
VERTEX
  8
1_0
  10
-154.5
  20
-882.5
  0
SEQEND
  0
POLYLINE
  8
1_0
  70
1
  66
1
  0
VERTEX
  8
1_0
  10
-637
  20
-923.5
  0
VERTEX
  8
1_0
  10
-616
  20
-923.5
  0
VERTEX
  8
1_0
  10
-616
  20
-943.5
  0
VERTEX
  8
1_0
  10
-637
  20
-943.5
  0
VERTEX
  8
1_0
  10
-637
  20
-923.5
  0
SEQEND
  0
POLYLINE
  8
1_0
  70
1
  66
1
  0
VERTEX
  8
1_0
  10
-403.5
  20
-892
  0
VERTEX
  8
1_0
  10
-424.5
  20
-892
  0
VERTEX
  8
1_0
  10
-424.5
  20
-872
  0
VERTEX
  8
1_0
  10
-403.5
  20
-872
  0
VERTEX
  8
1_0
  10
-403.5
  20
-892
  0
SEQEND
  0
POLYLINE
  8
1_0
  70
1
  66
1
  0
VERTEX
  8
1_0
  10
-130.5
  20
-773
  0
VERTEX
  8
1_0
  10
-130.5
  20
-804
  0
VERTEX
  8
1_0
  10
-120.5
  20
-804
  0
VERTEX
  8
1_0
  10
-120.5
  20
-773
  0
VERTEX
  8
1_0
  10
-130.5
  20
-773
  0
SEQEND
  0
POLYLINE
  8
1_0
  70
1
  66
1
  0
VERTEX
  8
1_0
  10
-371.5
  20
-765
  0
VERTEX
  8
1_0
  10
-371.5
  20
-796
  0
VERTEX
  8
1_0
  10
-361.5
  20
-796
  0
VERTEX
  8
1_0
  10
-361.5
  20
-765
  0
VERTEX
  8
1_0
  10
-371.5
  20
-765
  0
SEQEND
  0
POLYLINE
  8
1_0
  70
1
  66
1
  0
VERTEX
  8
1_0
  10
-613
  20
-814
  0
VERTEX
  8
1_0
  10
-613
  20
-845
  0
VERTEX
  8
1_0
  10
-603
  20
-845
  0
VERTEX
  8
1_0
  10
-603
  20
-814
  0
VERTEX
  8
1_0
  10
-613
  20
-814
  0
SEQEND
  0
POLYLINE
  8
1_0
  70
1
  66
1
  0
VERTEX
  8
1_0
  10
-362.5
  20
-851
  0
VERTEX
  8
1_0
  10
-362.5
  20
-867
  0
VERTEX
  8
1_0
  10
-337.5
  20
-867
  0
VERTEX
  8
1_0
  10
-337.5
  20
-851
  0
VERTEX
  8
1_0
  10
-362.5
  20
-851
  0
SEQEND
  0
POLYLINE
  8
1_0
  70
1
  66
1
  0
VERTEX
  8
1_0
  10
-642.5
  20
-798
  0
VERTEX
  8
1_0
  10
-642.5
  20
-826
  0
VERTEX
  8
1_0
  10
-632.5
  20
-826
  0
VERTEX
  8
1_0
  10
-632.5
  20
-798
  0
VERTEX
  8
1_0
  10
-642.5
  20
-798
  0
SEQEND
  0
POLYLINE
  8
1_0
  70
1
  66
1
  0
VERTEX
  8
1_0
  10
-580
  20
-917
  0
VERTEX
  8
1_0
  10
-580
  20
-922
  0
VERTEX
  8
1_0
  10
-585.5
  20
-922
  0
VERTEX
  8
1_0
  10
-585.5
  20
-929
  0
VERTEX
  8
1_0
  10
-606
  20
-929
  0
VERTEX
  8
1_0
  10
-606
  20
-917
  0
VERTEX
  8
1_0
  10
-580
  20
-917
  0
SEQEND
  0
POLYLINE
  8
1_0
  70
1
  66
1
  0
VERTEX
  8
1_0
  10
-737
  20
-726.5
  0
VERTEX
  8
1_0
  10
-737
  20
-736.5
  0
VERTEX
  8
1_0
  10
-709
  20
-736.5
  0
VERTEX
  8
1_0
  10
-709
  20
-726.5
  0
VERTEX
  8
1_0
  10
-737
  20
-726.5
  0
SEQEND
  0
POLYLINE
  8
1_0
  70
1
  66
1
  0
VERTEX
  8
1_0
  10
-810
  20
-726.5
  0
VERTEX
  8
1_0
  10
-810
  20
-736.5
  0
VERTEX
  8
1_0
  10
-782
  20
-736.5
  0
VERTEX
  8
1_0
  10
-782
  20
-726.5
  0
VERTEX
  8
1_0
  10
-810
  20
-726.5
  0
SEQEND
  0
POLYLINE
  8
1_0
  70
1
  66
1
  0
VERTEX
  8
1_0
  10
646.5
  20
-698.5
  0
VERTEX
  8
1_0
  10
656.5
  20
-698.5
  0
VERTEX
  8
1_0
  10
656.5
  20
-670.5
  0
VERTEX
  8
1_0
  10
646.5
  20
-670.5
  0
VERTEX
  8
1_0
  10
646.5
  20
-698.5
  0
SEQEND
  0
POLYLINE
  8
1_0
  70
1
  66
1
  0
VERTEX
  8
1_0
  10
-121.5
  20
-851
  0
VERTEX
  8
1_0
  10
-121.5
  20
-867
  0
VERTEX
  8
1_0
  10
-99.5
  20
-867
  0
VERTEX
  8
1_0
  10
-99.5
  20
-851
  0
VERTEX
  8
1_0
  10
-121.5
  20
-851
  0
SEQEND
  0
POLYLINE
  8
1_0
  70
1
  66
1
  0
VERTEX
  8
1_0
  10
-604
  20
-889
  0
VERTEX
  8
1_0
  10
-604
  20
-905
  0
VERTEX
  8
1_0
  10
-582
  20
-905
  0
VERTEX
  8
1_0
  10
-582
  20
-889
  0
VERTEX
  8
1_0
  10
-604
  20
-889
  0
SEQEND
  0
POLYLINE
  8
1_0
  70
1
  66
1
  0
VERTEX
  8
1_0
  10
399.6
  20
-1349.2
  0
VERTEX
  8
1_0
  10
406
  20
-1349.2
  0
VERTEX
  8
1_0
  10
407.6
  20
-1350.8
  0
VERTEX
  8
1_0
  10
407.6
  20
-1358
  0
VERTEX
  8
1_0
  10
406
  20
-1359.6
  0
VERTEX
  8
1_0
  10
399.6
  20
-1359.6
  0
VERTEX
  8
1_0
  10
399.6
  20
-1366
  0
VERTEX
  8
1_0
  10
409.2
  20
-1366
  0
VERTEX
  8
1_0
  10
414
  20
-1361.2
  0
VERTEX
  8
1_0
  10
414
  20
-1348
  0
VERTEX
  8
1_0
  10
408.8
  20
-1342.8
  0
VERTEX
  8
1_0
  10
399.6
  20
-1342.8
  0
VERTEX
  8
1_0
  10
399.6
  20
-1349.2
  0
SEQEND
  0
POLYLINE
  8
1_0
  70
1
  66
1
  0
VERTEX
  8
1_0
  10
174
  20
-1330.8
  0
VERTEX
  8
1_0
  10
169.2
  20
-1326
  0
VERTEX
  8
1_0
  10
159.6
  20
-1326
  0
VERTEX
  8
1_0
  10
159.6
  20
-1332.4
  0
VERTEX
  8
1_0
  10
166
  20
-1332.4
  0
VERTEX
  8
1_0
  10
167.6
  20
-1334
  0
VERTEX
  8
1_0
  10
167.6
  20
-1341.2
  0
VERTEX
  8
1_0
  10
166
  20
-1342.8
  0
VERTEX
  8
1_0
  10
159.6
  20
-1342.8
  0
VERTEX
  8
1_0
  10
159.6
  20
-1349.2
  0
VERTEX
  8
1_0
  10
169.2
  20
-1349.2
  0
VERTEX
  8
1_0
  10
174
  20
-1344.4
  0
VERTEX
  8
1_0
  10
174
  20
-1330.8
  0
SEQEND
  0
POLYLINE
  8
1_0
  70
1
  66
1
  0
VERTEX
  8
1_0
  10
-234.5
  20
-749
  0
VERTEX
  8
1_0
  10
-239
  20
-749
  0
VERTEX
  8
1_0
  10
-239
  20
-782
  0
VERTEX
  8
1_0
  10
-234.5
  20
-782
  0
VERTEX
  8
1_0
  10
-234.5
  20
-749
  0
SEQEND
  0
POLYLINE
  8
1_0
  70
1
  66
1
  0
VERTEX
  8
1_0
  10
-218
  20
-749
  0
VERTEX
  8
1_0
  10
-222.5
  20
-749
  0
VERTEX
  8
1_0
  10
-222.5
  20
-782
  0
VERTEX
  8
1_0
  10
-218
  20
-782
  0
VERTEX
  8
1_0
  10
-218
  20
-749
  0
SEQEND
  0
POLYLINE
  8
1_0
  70
1
  66
1
  0
VERTEX
  8
1_0
  10
-386
  20
-873
  0
VERTEX
  8
1_0
  10
-381.5
  20
-873
  0
VERTEX
  8
1_0
  10
-381.5
  20
-906
  0
VERTEX
  8
1_0
  10
-386
  20
-906
  0
VERTEX
  8
1_0
  10
-386
  20
-873
  0
SEQEND
  0
POLYLINE
  8
1_0
  70
1
  66
1
  0
VERTEX
  8
1_0
  10
-402.5
  20
-873
  0
VERTEX
  8
1_0
  10
-398
  20
-873
  0
VERTEX
  8
1_0
  10
-398
  20
-906
  0
VERTEX
  8
1_0
  10
-402.5
  20
-906
  0
VERTEX
  8
1_0
  10
-402.5
  20
-873
  0
SEQEND
  0
POLYLINE
  8
1_0
  70
1
  66
1
  0
VERTEX
  8
1_0
  10
-362.5
  20
-867
  0
VERTEX
  8
1_0
  10
-362.5
  20
-879
  0
VERTEX
  8
1_0
  10
-337.5
  20
-879
  0
VERTEX
  8
1_0
  10
-337.5
  20
-867
  0
VERTEX
  8
1_0
  10
-362.5
  20
-867
  0
SEQEND
  0
POLYLINE
  8
1_0
  70
1
  66
1
  0
VERTEX
  8
1_0
  10
-97.5
  20
-878
  0
VERTEX
  8
1_0
  10
-97.5
  20
-883
  0
VERTEX
  8
1_0
  10
-103
  20
-883
  0
VERTEX
  8
1_0
  10
-103
  20
-888
  0
VERTEX
  8
1_0
  10
-123.5
  20
-888
  0
VERTEX
  8
1_0
  10
-123.5
  20
-878
  0
VERTEX
  8
1_0
  10
-97.5
  20
-878
  0
SEQEND
  0
POLYLINE
  8
1_0
  70
1
  66
1
  0
VERTEX
  8
1_0
  10
-394.5
  20
-872
  0
VERTEX
  8
1_0
  10
-424.5
  20
-872
  0
VERTEX
  8
1_0
  10
-424.5
  20
-866
  0
VERTEX
  8
1_0
  10
-394.5
  20
-866
  0
VERTEX
  8
1_0
  10
-394.5
  20
-872
  0
SEQEND
  0
POLYLINE
  8
1_0
  70
1
  66
1
  0
VERTEX
  8
1_0
  10
-168.5
  20
-764
  0
VERTEX
  8
1_0
  10
-158.5
  20
-764
  0
VERTEX
  8
1_0
  10
-158.5
  20
-738
  0
VERTEX
  8
1_0
  10
-168.5
  20
-738
  0
VERTEX
  8
1_0
  10
-168.5
  20
-764
  0
SEQEND
  0
POLYLINE
  8
1_0
  70
1
  66
1
  0
VERTEX
  8
1_0
  10
265.62
  20
-651.4
  0
VERTEX
  8
1_0
  10
262.5
  20
-654.52
  0
VERTEX
  8
1_0
  10
262.5
  20
-660.76
  0
VERTEX
  8
1_0
  10
266.66
  20
-660.76
  0
VERTEX
  8
1_0
  10
266.66
  20
-656.6
  0
VERTEX
  8
1_0
  10
267.7
  20
-655.56
  0
VERTEX
  8
1_0
  10
283.3
  20
-655.56
  0
VERTEX
  8
1_0
  10
284.34
  20
-656.6
  0
VERTEX
  8
1_0
  10
284.34
  20
-660.76
  0
VERTEX
  8
1_0
  10
288.5
  20
-660.76
  0
VERTEX
  8
1_0
  10
288.5
  20
-654.52
  0
VERTEX
  8
1_0
  10
285.38
  20
-651.4
  0
VERTEX
  8
1_0
  10
265.62
  20
-651.4
  0
SEQEND
  0
POLYLINE
  8
1_0
  70
1
  66
1
  0
VERTEX
  8
1_0
  10
265.62
  20
-677.4
  0
VERTEX
  8
1_0
  10
262.5
  20
-680.52
  0
VERTEX
  8
1_0
  10
262.5
  20
-686.76
  0
VERTEX
  8
1_0
  10
266.66
  20
-686.76
  0
VERTEX
  8
1_0
  10
266.66
  20
-682.6
  0
VERTEX
  8
1_0
  10
267.7
  20
-681.56
  0
VERTEX
  8
1_0
  10
283.3
  20
-681.56
  0
VERTEX
  8
1_0
  10
284.34
  20
-682.6
  0
VERTEX
  8
1_0
  10
284.34
  20
-686.76
  0
VERTEX
  8
1_0
  10
288.5
  20
-686.76
  0
VERTEX
  8
1_0
  10
288.5
  20
-680.52
  0
VERTEX
  8
1_0
  10
285.38
  20
-677.4
  0
VERTEX
  8
1_0
  10
265.62
  20
-677.4
  0
SEQEND
  0
POLYLINE
  8
1_0
  70
1
  66
1
  0
VERTEX
  8
1_0
  10
432.34
  20
-664.84
  0
VERTEX
  8
1_0
  10
432.34
  20
-670.04
  0
VERTEX
  8
1_0
  10
414.66
  20
-670.04
  0
VERTEX
  8
1_0
  10
414.66
  20
-664.84
  0
VERTEX
  8
1_0
  10
410.5
  20
-664.84
  0
VERTEX
  8
1_0
  10
410.5
  20
-674.2
  0
VERTEX
  8
1_0
  10
436.5
  20
-674.2
  0
VERTEX
  8
1_0
  10
436.5
  20
-664.84
  0
VERTEX
  8
1_0
  10
432.34
  20
-664.84
  0
SEQEND
  0
POLYLINE
  8
1_0
  70
1
  66
1
  0
VERTEX
  8
1_0
  10
284.34
  20
-688.84
  0
VERTEX
  8
1_0
  10
284.34
  20
-694.04
  0
VERTEX
  8
1_0
  10
266.66
  20
-694.04
  0
VERTEX
  8
1_0
  10
266.66
  20
-688.84
  0
VERTEX
  8
1_0
  10
262.5
  20
-688.84
  0
VERTEX
  8
1_0
  10
262.5
  20
-698.2
  0
VERTEX
  8
1_0
  10
288.5
  20
-698.2
  0
VERTEX
  8
1_0
  10
288.5
  20
-688.84
  0
VERTEX
  8
1_0
  10
284.34
  20
-688.84
  0
SEQEND
  0
POLYLINE
  8
1_0
  70
1
  66
1
  0
VERTEX
  8
1_0
  10
284.34
  20
-662.84
  0
VERTEX
  8
1_0
  10
284.34
  20
-668.04
  0
VERTEX
  8
1_0
  10
266.66
  20
-668.04
  0
VERTEX
  8
1_0
  10
266.66
  20
-662.84
  0
VERTEX
  8
1_0
  10
262.5
  20
-662.84
  0
VERTEX
  8
1_0
  10
262.5
  20
-672.2
  0
VERTEX
  8
1_0
  10
288.5
  20
-672.2
  0
VERTEX
  8
1_0
  10
288.5
  20
-662.84
  0
VERTEX
  8
1_0
  10
284.34
  20
-662.84
  0
SEQEND
  0
POLYLINE
  8
1_0
  70
1
  66
1
  0
VERTEX
  8
1_0
  10
413.62
  20
-653.4
  0
VERTEX
  8
1_0
  10
410.5
  20
-656.52
  0
VERTEX
  8
1_0
  10
410.5
  20
-662.76
  0
VERTEX
  8
1_0
  10
414.66
  20
-662.76
  0
VERTEX
  8
1_0
  10
414.66
  20
-658.6
  0
VERTEX
  8
1_0
  10
415.7
  20
-657.56
  0
VERTEX
  8
1_0
  10
431.3
  20
-657.56
  0
VERTEX
  8
1_0
  10
432.34
  20
-658.6
  0
VERTEX
  8
1_0
  10
432.34
  20
-662.76
  0
VERTEX
  8
1_0
  10
436.5
  20
-662.76
  0
VERTEX
  8
1_0
  10
436.5
  20
-656.52
  0
VERTEX
  8
1_0
  10
433.38
  20
-653.4
  0
VERTEX
  8
1_0
  10
413.62
  20
-653.4
  0
SEQEND
  0
POLYLINE
  8
1_0
  70
1
  66
1
  0
VERTEX
  8
1_0
  10
-177.5
  20
-754
  0
VERTEX
  8
1_0
  10
-148.5
  20
-754
  0
VERTEX
  8
1_0
  10
-148.5
  20
-748
  0
VERTEX
  8
1_0
  10
-177.5
  20
-748
  0
VERTEX
  8
1_0
  10
-177.5
  20
-754
  0
SEQEND
  0
POLYLINE
  8
1_0
  70
1
  66
1
  0
VERTEX
  8
1_0
  10
-103
  20
-893
  0
VERTEX
  8
1_0
  10
-132
  20
-893
  0
VERTEX
  8
1_0
  10
-132
  20
-887
  0
VERTEX
  8
1_0
  10
-103
  20
-887
  0
VERTEX
  8
1_0
  10
-103
  20
-893
  0
SEQEND
  0
POLYLINE
  8
1_0
  70
1
  66
1
  0
VERTEX
  8
1_0
  10
-585.5
  20
-934
  0
VERTEX
  8
1_0
  10
-614.5
  20
-934
  0
VERTEX
  8
1_0
  10
-614.5
  20
-928
  0
VERTEX
  8
1_0
  10
-585.5
  20
-928
  0
VERTEX
  8
1_0
  10
-585.5
  20
-934
  0
SEQEND
  0
POLYLINE
  8
1_0
  70
1
  66
1
  0
VERTEX
  8
1_0
  10
-103
  20
-893
  0
VERTEX
  8
1_0
  10
-132
  20
-893
  0
VERTEX
  8
1_0
  10
-132
  20
-887
  0
VERTEX
  8
1_0
  10
-103
  20
-887
  0
VERTEX
  8
1_0
  10
-103
  20
-893
  0
SEQEND
  0
POLYLINE
  8
1_0
  70
1
  66
1
  0
VERTEX
  8
1_0
  10
-585.5
  20
-934
  0
VERTEX
  8
1_0
  10
-614.5
  20
-934
  0
VERTEX
  8
1_0
  10
-614.5
  20
-928
  0
VERTEX
  8
1_0
  10
-585.5
  20
-928
  0
VERTEX
  8
1_0
  10
-585.5
  20
-934
  0
SEQEND
  0
POLYLINE
  8
1_0
  70
1
  66
1
  0
VERTEX
  8
1_0
  10
-139
  20
-880
  0
VERTEX
  8
1_0
  10
-130
  20
-880
  0
VERTEX
  8
1_0
  10
-130
  20
-905
  0
VERTEX
  8
1_0
  10
-139
  20
-905
  0
VERTEX
  8
1_0
  10
-139
  20
-880
  0
SEQEND
  0
POLYLINE
  8
1_0
  70
1
  66
1
  0
VERTEX
  8
1_0
  10
-158
  20
-880
  0
VERTEX
  8
1_0
  10
-149
  20
-880
  0
VERTEX
  8
1_0
  10
-149
  20
-905
  0
VERTEX
  8
1_0
  10
-158
  20
-905
  0
VERTEX
  8
1_0
  10
-158
  20
-880
  0
SEQEND
  0
POLYLINE
  8
1_0
  70
1
  66
1
  0
VERTEX
  8
1_0
  10
-621.5
  20
-921
  0
VERTEX
  8
1_0
  10
-612.5
  20
-921
  0
VERTEX
  8
1_0
  10
-612.5
  20
-946
  0
VERTEX
  8
1_0
  10
-621.5
  20
-946
  0
VERTEX
  8
1_0
  10
-621.5
  20
-921
  0
SEQEND
  0
POLYLINE
  8
1_0
  70
1
  66
1
  0
VERTEX
  8
1_0
  10
-640.5
  20
-921
  0
VERTEX
  8
1_0
  10
-631.5
  20
-921
  0
VERTEX
  8
1_0
  10
-631.5
  20
-946
  0
VERTEX
  8
1_0
  10
-640.5
  20
-946
  0
VERTEX
  8
1_0
  10
-640.5
  20
-921
  0
SEQEND
  0
POLYLINE
  8
1_0
  70
1
  66
1
  0
VERTEX
  8
1_0
  10
-121.5
  20
-867
  0
VERTEX
  8
1_0
  10
-121.5
  20
-879
  0
VERTEX
  8
1_0
  10
-99.5
  20
-879
  0
VERTEX
  8
1_0
  10
-99.5
  20
-867
  0
VERTEX
  8
1_0
  10
-121.5
  20
-867
  0
SEQEND
  0
POLYLINE
  8
1_0
  70
1
  66
1
  0
VERTEX
  8
1_0
  10
-604
  20
-905
  0
VERTEX
  8
1_0
  10
-604
  20
-917
  0
VERTEX
  8
1_0
  10
-582
  20
-917
  0
VERTEX
  8
1_0
  10
-582
  20
-905
  0
VERTEX
  8
1_0
  10
-604
  20
-905
  0
SEQEND
  0
POLYLINE
  8
1_0
  70
1
  66
1
  0
VERTEX
  8
1_0
  10
-361.5
  20
-868
  0
VERTEX
  8
1_0
  10
-361.5
  20
-878
  0
VERTEX
  8
1_0
  10
-338.5
  20
-878
  0
VERTEX
  8
1_0
  10
-338.5
  20
-868
  0
VERTEX
  8
1_0
  10
-361.5
  20
-868
  0
SEQEND
  0
POLYLINE
  8
1_0
  70
1
  66
1
  0
VERTEX
  8
1_0
  10
-761
  20
-725.5
  0
VERTEX
  8
1_0
  10
-761
  20
-743.5
  0
VERTEX
  8
1_0
  10
-746
  20
-743.5
  0
VERTEX
  8
1_0
  10
-746
  20
-725.5
  0
VERTEX
  8
1_0
  10
-761
  20
-725.5
  0
SEQEND
  0
POLYLINE
  8
1_0
  70
1
  66
1
  0
VERTEX
  8
1_0
  10
-700
  20
-725.5
  0
VERTEX
  8
1_0
  10
-700
  20
-743.5
  0
VERTEX
  8
1_0
  10
-685
  20
-743.5
  0
VERTEX
  8
1_0
  10
-685
  20
-725.5
  0
VERTEX
  8
1_0
  10
-700
  20
-725.5
  0
SEQEND
  0
POLYLINE
  8
1_0
  70
1
  66
1
  0
VERTEX
  8
1_0
  10
-834
  20
-725.5
  0
VERTEX
  8
1_0
  10
-834
  20
-743.5
  0
VERTEX
  8
1_0
  10
-819
  20
-743.5
  0
VERTEX
  8
1_0
  10
-819
  20
-725.5
  0
VERTEX
  8
1_0
  10
-834
  20
-725.5
  0
SEQEND
  0
POLYLINE
  8
1_0
  70
1
  66
1
  0
VERTEX
  8
1_0
  10
-773
  20
-725.5
  0
VERTEX
  8
1_0
  10
-773
  20
-743.5
  0
VERTEX
  8
1_0
  10
-758
  20
-743.5
  0
VERTEX
  8
1_0
  10
-758
  20
-725.5
  0
VERTEX
  8
1_0
  10
-773
  20
-725.5
  0
SEQEND
  0
POLYLINE
  8
1_0
  70
1
  66
1
  0
VERTEX
  8
1_0
  10
1064.5
  20
-721
  0
VERTEX
  8
1_0
  10
1064.5
  20
-706
  0
VERTEX
  8
1_0
  10
1046.5
  20
-706
  0
VERTEX
  8
1_0
  10
1046.5
  20
-721
  0
VERTEX
  8
1_0
  10
1064.5
  20
-721
  0
SEQEND
  0
POLYLINE
  8
1_0
  70
1
  66
1
  0
VERTEX
  8
1_0
  10
1064.5
  20
-660
  0
VERTEX
  8
1_0
  10
1064.5
  20
-645
  0
VERTEX
  8
1_0
  10
1046.5
  20
-645
  0
VERTEX
  8
1_0
  10
1046.5
  20
-660
  0
VERTEX
  8
1_0
  10
1064.5
  20
-660
  0
SEQEND
  0
POLYLINE
  8
1_0
  70
1
  66
1
  0
VERTEX
  8
1_0
  10
645.5
  20
-661.5
  0
VERTEX
  8
1_0
  10
663.5
  20
-661.5
  0
VERTEX
  8
1_0
  10
663.5
  20
-646.5
  0
VERTEX
  8
1_0
  10
645.5
  20
-646.5
  0
VERTEX
  8
1_0
  10
645.5
  20
-661.5
  0
SEQEND
  0
POLYLINE
  8
1_0
  70
1
  66
1
  0
VERTEX
  8
1_0
  10
645.5
  20
-722.5
  0
VERTEX
  8
1_0
  10
663.5
  20
-722.5
  0
VERTEX
  8
1_0
  10
663.5
  20
-707.5
  0
VERTEX
  8
1_0
  10
645.5
  20
-707.5
  0
VERTEX
  8
1_0
  10
645.5
  20
-722.5
  0
SEQEND
  0
POLYLINE
  8
1_0
  70
1
  66
1
  0
VERTEX
  8
1_0
  10
-633.5
  20
-782
  0
VERTEX
  8
1_0
  10
-633.5
  20
-783
  0
VERTEX
  8
1_0
  10
-641.5
  20
-783
  0
VERTEX
  8
1_0
  10
-641.5
  20
-782
  0
VERTEX
  8
1_0
  10
-644.5
  20
-782
  0
VERTEX
  8
1_0
  10
-644.5
  20
-800
  0
VERTEX
  8
1_0
  10
-641.5
  20
-800
  0
VERTEX
  8
1_0
  10
-641.5
  20
-799
  0
VERTEX
  8
1_0
  10
-633.5
  20
-799
  0
VERTEX
  8
1_0
  10
-633.5
  20
-800
  0
VERTEX
  8
1_0
  10
-630.5
  20
-800
  0
VERTEX
  8
1_0
  10
-630.5
  20
-782
  0
VERTEX
  8
1_0
  10
-633.5
  20
-782
  0
SEQEND
  0
POLYLINE
  8
1_0
  70
1
  66
1
  0
VERTEX
  8
1_0
  10
-136.5
  20
-880
  0
VERTEX
  8
1_0
  10
-130
  20
-880
  0
VERTEX
  8
1_0
  10
-130
  20
-905
  0
VERTEX
  8
1_0
  10
-136.5
  20
-905
  0
VERTEX
  8
1_0
  10
-136.5
  20
-880
  0
SEQEND
  0
POLYLINE
  8
1_0
  70
1
  66
1
  0
VERTEX
  8
1_0
  10
-158
  20
-880
  0
VERTEX
  8
1_0
  10
-151.5
  20
-880
  0
VERTEX
  8
1_0
  10
-151.5
  20
-905
  0
VERTEX
  8
1_0
  10
-158
  20
-905
  0
VERTEX
  8
1_0
  10
-158
  20
-880
  0
SEQEND
  0
POLYLINE
  8
1_0
  70
1
  66
1
  0
VERTEX
  8
1_0
  10
-619
  20
-921
  0
VERTEX
  8
1_0
  10
-612.5
  20
-921
  0
VERTEX
  8
1_0
  10
-612.5
  20
-946
  0
VERTEX
  8
1_0
  10
-619
  20
-946
  0
VERTEX
  8
1_0
  10
-619
  20
-921
  0
SEQEND
  0
POLYLINE
  8
1_0
  70
1
  66
1
  0
VERTEX
  8
1_0
  10
-640.5
  20
-921
  0
VERTEX
  8
1_0
  10
-634
  20
-921
  0
VERTEX
  8
1_0
  10
-634
  20
-946
  0
VERTEX
  8
1_0
  10
-640.5
  20
-946
  0
VERTEX
  8
1_0
  10
-640.5
  20
-921
  0
SEQEND
  0
POLYLINE
  8
1_0
  70
1
  66
1
  0
VERTEX
  8
1_0
  10
-632
  20
-801
  0
VERTEX
  8
1_0
  10
-632
  20
-781
  0
VERTEX
  8
1_0
  10
-643
  20
-781
  0
VERTEX
  8
1_0
  10
-643
  20
-801
  0
VERTEX
  8
1_0
  10
-632
  20
-801
  0
SEQEND
  0
POLYLINE
  8
1_0
  70
1
  66
1
  0
VERTEX
  8
1_0
  10
-104
  20
-892
  0
VERTEX
  8
1_0
  10
-131
  20
-892
  0
VERTEX
  8
1_0
  10
-131
  20
-888
  0
VERTEX
  8
1_0
  10
-104
  20
-888
  0
VERTEX
  8
1_0
  10
-104
  20
-892
  0
SEQEND
  0
POLYLINE
  8
1_0
  70
1
  66
1
  0
VERTEX
  8
1_0
  10
-361.5
  20
-852
  0
VERTEX
  8
1_0
  10
-361.5
  20
-860
  0
VERTEX
  8
1_0
  10
-338.5
  20
-860
  0
VERTEX
  8
1_0
  10
-338.5
  20
-852
  0
VERTEX
  8
1_0
  10
-361.5
  20
-852
  0
SEQEND
  0
POLYLINE
  8
1_0
  70
1
  66
1
  0
VERTEX
  8
1_0
  10
-586.5
  20
-933
  0
VERTEX
  8
1_0
  10
-613.5
  20
-933
  0
VERTEX
  8
1_0
  10
-613.5
  20
-929
  0
VERTEX
  8
1_0
  10
-586.5
  20
-929
  0
VERTEX
  8
1_0
  10
-586.5
  20
-933
  0
SEQEND
  0
POLYLINE
  8
1_0
  70
1
  66
1
  0
VERTEX
  8
1_0
  10
-376.5
  20
-906
  0
VERTEX
  8
1_0
  10
-384
  20
-906
  0
VERTEX
  8
1_0
  10
-384
  20
-883
  0
VERTEX
  8
1_0
  10
-376.5
  20
-883
  0
VERTEX
  8
1_0
  10
-376.5
  20
-906
  0
SEQEND
  0
POLYLINE
  8
1_0
  70
1
  66
1
  0
VERTEX
  8
1_0
  10
250
  20
-1313
  0
VERTEX
  8
1_0
  10
274
  20
-1313
  0
VERTEX
  8
1_0
  10
274
  20
-1306.6
  0
VERTEX
  8
1_0
  10
250
  20
-1306.6
  0
VERTEX
  8
1_0
  10
250
  20
-1313
  0
SEQEND
  0
POLYLINE
  8
1_0
  70
1
  66
1
  0
VERTEX
  8
1_0
  10
-632.5
  20
-801
  0
VERTEX
  8
1_0
  10
-632.5
  20
-781
  0
VERTEX
  8
1_0
  10
-642.5
  20
-781
  0
VERTEX
  8
1_0
  10
-642.5
  20
-801
  0
VERTEX
  8
1_0
  10
-632.5
  20
-801
  0
SEQEND
  0
POLYLINE
  8
1_0
  70
1
  66
1
  0
VERTEX
  8
1_0
  10
-120.5
  20
-868
  0
VERTEX
  8
1_0
  10
-120.5
  20
-878
  0
VERTEX
  8
1_0
  10
-100.5
  20
-878
  0
VERTEX
  8
1_0
  10
-100.5
  20
-868
  0
VERTEX
  8
1_0
  10
-120.5
  20
-868
  0
SEQEND
  0
POLYLINE
  8
1_0
  70
1
  66
1
  0
VERTEX
  8
1_0
  10
-603
  20
-906
  0
VERTEX
  8
1_0
  10
-603
  20
-916
  0
VERTEX
  8
1_0
  10
-583
  20
-916
  0
VERTEX
  8
1_0
  10
-583
  20
-906
  0
VERTEX
  8
1_0
  10
-603
  20
-906
  0
SEQEND
  0
POLYLINE
  8
1_0
  70
1
  66
1
  0
VERTEX
  8
1_0
  10
-642.5
  20
-786
  0
VERTEX
  8
1_0
  10
-632.5
  20
-786
  0
VERTEX
  8
1_0
  10
-632.5
  20
-767.5
  0
VERTEX
  8
1_0
  10
-642.5
  20
-767.5
  0
VERTEX
  8
1_0
  10
-642.5
  20
-786
  0
SEQEND
  0
POLYLINE
  8
1_0
  70
1
  66
1
  0
VERTEX
  8
1_0
  10
-154.5
  20
-901
  0
VERTEX
  8
1_0
  10
-165
  20
-901
  0
VERTEX
  8
1_0
  10
-165
  20
-883
  0
VERTEX
  8
1_0
  10
-154.5
  20
-883
  0
VERTEX
  8
1_0
  10
-154.5
  20
-901
  0
SEQEND
  0
POLYLINE
  8
1_0
  70
1
  66
1
  0
VERTEX
  8
1_0
  10
-637
  20
-942
  0
VERTEX
  8
1_0
  10
-647.5
  20
-942
  0
VERTEX
  8
1_0
  10
-647.5
  20
-924
  0
VERTEX
  8
1_0
  10
-637
  20
-924
  0
VERTEX
  8
1_0
  10
-637
  20
-942
  0
SEQEND
  0
POLYLINE
  8
1_0
  70
1
  66
1
  0
VERTEX
  8
1_0
  10
-120.5
  20
-852
  0
VERTEX
  8
1_0
  10
-120.5
  20
-860
  0
VERTEX
  8
1_0
  10
-100.5
  20
-860
  0
VERTEX
  8
1_0
  10
-100.5
  20
-852
  0
VERTEX
  8
1_0
  10
-120.5
  20
-852
  0
SEQEND
  0
POLYLINE
  8
1_0
  70
1
  66
1
  0
VERTEX
  8
1_0
  10
-603
  20
-890
  0
VERTEX
  8
1_0
  10
-603
  20
-898
  0
VERTEX
  8
1_0
  10
-583
  20
-898
  0
VERTEX
  8
1_0
  10
-583
  20
-890
  0
VERTEX
  8
1_0
  10
-603
  20
-890
  0
SEQEND
  0
POLYLINE
  8
1_0
  70
1
  66
1
  0
VERTEX
  8
1_0
  10
-135.5
  20
-881
  0
VERTEX
  8
1_0
  10
-131
  20
-881
  0
VERTEX
  8
1_0
  10
-131
  20
-904
  0
VERTEX
  8
1_0
  10
-135.5
  20
-904
  0
VERTEX
  8
1_0
  10
-135.5
  20
-881
  0
SEQEND
  0
POLYLINE
  8
1_0
  70
1
  66
1
  0
VERTEX
  8
1_0
  10
-157
  20
-881
  0
VERTEX
  8
1_0
  10
-152.5
  20
-881
  0
VERTEX
  8
1_0
  10
-152.5
  20
-904
  0
VERTEX
  8
1_0
  10
-157
  20
-904
  0
VERTEX
  8
1_0
  10
-157
  20
-881
  0
SEQEND
  0
POLYLINE
  8
1_0
  70
1
  66
1
  0
VERTEX
  8
1_0
  10
-618
  20
-922
  0
VERTEX
  8
1_0
  10
-613.5
  20
-922
  0
VERTEX
  8
1_0
  10
-613.5
  20
-945
  0
VERTEX
  8
1_0
  10
-618
  20
-945
  0
VERTEX
  8
1_0
  10
-618
  20
-922
  0
SEQEND
  0
POLYLINE
  8
1_0
  70
1
  66
1
  0
VERTEX
  8
1_0
  10
-639.5
  20
-922
  0
VERTEX
  8
1_0
  10
-635
  20
-922
  0
VERTEX
  8
1_0
  10
-635
  20
-945
  0
VERTEX
  8
1_0
  10
-639.5
  20
-945
  0
VERTEX
  8
1_0
  10
-639.5
  20
-922
  0
SEQEND
  0
POLYLINE
  8
1_0
  70
1
  66
1
  0
VERTEX
  8
1_0
  10
-151
  20
-726.5
  0
VERTEX
  8
1_0
  10
-170
  20
-726.5
  0
VERTEX
  8
1_0
  10
-170
  20
-729.5
  0
VERTEX
  8
1_0
  10
-158
  20
-729.5
  0
VERTEX
  8
1_0
  10
-158
  20
-734.5
  0
VERTEX
  8
1_0
  10
-151
  20
-734.5
  0
VERTEX
  8
1_0
  10
-151
  20
-726.5
  0
SEQEND
  0
POLYLINE
  8
1_0
  70
1
  66
1
  0
VERTEX
  8
1_0
  10
-633.5
  20
-802
  0
VERTEX
  8
1_0
  10
-628.5
  20
-802
  0
VERTEX
  8
1_0
  10
-628.5
  20
-780
  0
VERTEX
  8
1_0
  10
-633.5
  20
-780
  0
VERTEX
  8
1_0
  10
-633.5
  20
-802
  0
SEQEND
  0
POLYLINE
  8
1_0
  70
1
  66
1
  0
VERTEX
  8
1_0
  10
-646.5
  20
-802
  0
VERTEX
  8
1_0
  10
-641.5
  20
-802
  0
VERTEX
  8
1_0
  10
-641.5
  20
-780
  0
VERTEX
  8
1_0
  10
-646.5
  20
-780
  0
VERTEX
  8
1_0
  10
-646.5
  20
-802
  0
SEQEND
  0
POLYLINE
  8
1_0
  70
1
  66
1
  0
VERTEX
  8
1_0
  10
-170.5
  20
-730
  0
VERTEX
  8
1_0
  10
-170.5
  20
-741
  0
VERTEX
  8
1_0
  10
-167.5
  20
-741
  0
VERTEX
  8
1_0
  10
-167.5
  20
-739
  0
VERTEX
  8
1_0
  10
-159.5
  20
-739
  0
VERTEX
  8
1_0
  10
-159.5
  20
-741
  0
VERTEX
  8
1_0
  10
-156.5
  20
-741
  0
VERTEX
  8
1_0
  10
-156.5
  20
-730
  0
VERTEX
  8
1_0
  10
-170.5
  20
-730
  0
SEQEND
  0
POLYLINE
  8
1_0
  70
1
  66
1
  0
VERTEX
  8
1_0
  10
-158
  20
-742
  0
VERTEX
  8
1_0
  10
-158
  20
-729
  0
VERTEX
  8
1_0
  10
-169
  20
-729
  0
VERTEX
  8
1_0
  10
-169
  20
-742
  0
VERTEX
  8
1_0
  10
-158
  20
-742
  0
SEQEND
  0
POLYLINE
  8
1_0
  70
1
  66
1
  0
VERTEX
  8
1_0
  10
-170.5
  20
-756
  0
VERTEX
  8
1_0
  10
-156.5
  20
-756
  0
VERTEX
  8
1_0
  10
-156.5
  20
-746
  0
VERTEX
  8
1_0
  10
-170.5
  20
-746
  0
VERTEX
  8
1_0
  10
-170.5
  20
-756
  0
SEQEND
  0
POLYLINE
  8
1_0
  70
1
  66
1
  0
VERTEX
  8
1_0
  10
-168.5
  20
-733
  0
VERTEX
  8
1_0
  10
-150.5
  20
-733
  0
VERTEX
  8
1_0
  10
-150.5
  20
-728
  0
VERTEX
  8
1_0
  10
-168.5
  20
-728
  0
VERTEX
  8
1_0
  10
-168.5
  20
-733
  0
SEQEND
  0
POLYLINE
  8
1_0
  70
1
  66
1
  0
VERTEX
  8
1_0
  10
-158.5
  20
-742
  0
VERTEX
  8
1_0
  10
-158.5
  20
-729
  0
VERTEX
  8
1_0
  10
-168.5
  20
-729
  0
VERTEX
  8
1_0
  10
-168.5
  20
-742
  0
VERTEX
  8
1_0
  10
-158.5
  20
-742
  0
SEQEND
  0
POLYLINE
  8
1_0
  70
1
  66
1
  0
VERTEX
  8
1_0
  10
-760
  20
-726.5
  0
VERTEX
  8
1_0
  10
-760
  20
-736.5
  0
VERTEX
  8
1_0
  10
-747
  20
-736.5
  0
VERTEX
  8
1_0
  10
-747
  20
-726.5
  0
VERTEX
  8
1_0
  10
-760
  20
-726.5
  0
SEQEND
  0
POLYLINE
  8
1_0
  70
1
  66
1
  0
VERTEX
  8
1_0
  10
-699
  20
-726.5
  0
VERTEX
  8
1_0
  10
-699
  20
-736.5
  0
VERTEX
  8
1_0
  10
-686
  20
-736.5
  0
VERTEX
  8
1_0
  10
-686
  20
-726.5
  0
VERTEX
  8
1_0
  10
-699
  20
-726.5
  0
SEQEND
  0
POLYLINE
  8
1_0
  70
1
  66
1
  0
VERTEX
  8
1_0
  10
-833
  20
-726.5
  0
VERTEX
  8
1_0
  10
-833
  20
-736.5
  0
VERTEX
  8
1_0
  10
-820
  20
-736.5
  0
VERTEX
  8
1_0
  10
-820
  20
-726.5
  0
VERTEX
  8
1_0
  10
-833
  20
-726.5
  0
SEQEND
  0
POLYLINE
  8
1_0
  70
1
  66
1
  0
VERTEX
  8
1_0
  10
-772
  20
-726.5
  0
VERTEX
  8
1_0
  10
-772
  20
-736.5
  0
VERTEX
  8
1_0
  10
-759
  20
-736.5
  0
VERTEX
  8
1_0
  10
-759
  20
-726.5
  0
VERTEX
  8
1_0
  10
-772
  20
-726.5
  0
SEQEND
  0
POLYLINE
  8
1_0
  70
1
  66
1
  0
VERTEX
  8
1_0
  10
646.5
  20
-660.5
  0
VERTEX
  8
1_0
  10
656.5
  20
-660.5
  0
VERTEX
  8
1_0
  10
656.5
  20
-647.5
  0
VERTEX
  8
1_0
  10
646.5
  20
-647.5
  0
VERTEX
  8
1_0
  10
646.5
  20
-660.5
  0
SEQEND
  0
POLYLINE
  8
1_0
  70
1
  66
1
  0
VERTEX
  8
1_0
  10
646.5
  20
-721.5
  0
VERTEX
  8
1_0
  10
656.5
  20
-721.5
  0
VERTEX
  8
1_0
  10
656.5
  20
-708.5
  0
VERTEX
  8
1_0
  10
646.5
  20
-708.5
  0
VERTEX
  8
1_0
  10
646.5
  20
-721.5
  0
SEQEND
  0
POLYLINE
  8
1_0
  70
1
  66
1
  0
VERTEX
  8
1_0
  10
-641.5
  20
-780
  0
VERTEX
  8
1_0
  10
-633.5
  20
-780
  0
VERTEX
  8
1_0
  10
-633.5
  20
-767.5
  0
VERTEX
  8
1_0
  10
-641.5
  20
-767.5
  0
VERTEX
  8
1_0
  10
-641.5
  20
-780
  0
SEQEND
  0
POLYLINE
  8
1_0
  70
1
  66
1
  0
VERTEX
  8
1_0
  10
-642.5
  20
-779
  0
VERTEX
  8
1_0
  10
-632.5
  20
-779
  0
VERTEX
  8
1_0
  10
-632.5
  20
-768.5
  0
VERTEX
  8
1_0
  10
-642.5
  20
-768.5
  0
VERTEX
  8
1_0
  10
-642.5
  20
-779
  0
SEQEND
  0
POLYLINE
  8
1_0
  70
1
  66
1
  0
VERTEX
  8
1_0
  10
-681
  20
-824.5
  0
VERTEX
  8
1_0
  10
-678.5
  20
-824.5
  0
VERTEX
  8
1_0
  10
-678.5
  20
-808
  0
VERTEX
  8
1_0
  10
-681
  20
-808
  0
VERTEX
  8
1_0
  10
-681
  20
-824.5
  0
SEQEND
  0
POLYLINE
  8
1_0
  70
1
  66
1
  0
VERTEX
  8
1_0
  10
-681
  20
-824.5
  0
VERTEX
  8
1_0
  10
-678.5
  20
-824.5
  0
VERTEX
  8
1_0
  10
-678.5
  20
-808
  0
VERTEX
  8
1_0
  10
-681
  20
-808
  0
VERTEX
  8
1_0
  10
-681
  20
-824.5
  0
SEQEND
  0
POLYLINE
  8
1_0
  70
1
  66
1
  0
VERTEX
  8
1_0
  10
-157
  20
-742.5
  0
VERTEX
  8
1_0
  10
-157
  20
-736.5
  0
VERTEX
  8
1_0
  10
-170
  20
-736.5
  0
VERTEX
  8
1_0
  10
-170
  20
-742.5
  0
VERTEX
  8
1_0
  10
-157
  20
-742.5
  0
SEQEND
  0
POLYLINE
  8
1_0
  70
1
  66
1
  0
VERTEX
  8
1_0
  10
-157
  20
-734.5
  0
VERTEX
  8
1_0
  10
-157
  20
-728.5
  0
VERTEX
  8
1_0
  10
-170
  20
-728.5
  0
VERTEX
  8
1_0
  10
-170
  20
-734.5
  0
VERTEX
  8
1_0
  10
-157
  20
-734.5
  0
SEQEND
  0
POLYLINE
  8
1_0
  70
1
  66
1
  0
VERTEX
  8
1_0
  10
-631
  20
-801.5
  0
VERTEX
  8
1_0
  10
-631
  20
-795.5
  0
VERTEX
  8
1_0
  10
-644
  20
-795.5
  0
VERTEX
  8
1_0
  10
-644
  20
-801.5
  0
VERTEX
  8
1_0
  10
-631
  20
-801.5
  0
SEQEND
  0
POLYLINE
  8
1_0
  70
1
  66
1
  0
VERTEX
  8
1_0
  10
-631
  20
-786.5
  0
VERTEX
  8
1_0
  10
-631
  20
-780.5
  0
VERTEX
  8
1_0
  10
-644
  20
-780.5
  0
VERTEX
  8
1_0
  10
-644
  20
-786.5
  0
VERTEX
  8
1_0
  10
-631
  20
-786.5
  0
SEQEND
  0
POLYLINE
  8
1_0
  70
1
  66
1
  0
VERTEX
  8
1_0
  10
-681
  20
-824.5
  0
VERTEX
  8
1_0
  10
-678.5
  20
-824.5
  0
VERTEX
  8
1_0
  10
-678.5
  20
-808
  0
VERTEX
  8
1_0
  10
-681
  20
-808
  0
VERTEX
  8
1_0
  10
-681
  20
-824.5
  0
SEQEND
  0
POLYLINE
  8
1_0
  70
1
  66
1
  0
VERTEX
  8
1_0
  10
-170.5
  20
-730
  0
VERTEX
  8
1_0
  10
-156.5
  20
-730
  0
VERTEX
  8
1_0
  10
-156.5
  20
-726
  0
VERTEX
  8
1_0
  10
-170.5
  20
-726
  0
VERTEX
  8
1_0
  10
-170.5
  20
-730
  0
SEQEND
  0
POLYLINE
  8
1_0
  70
1
  66
1
  0
VERTEX
  8
1_0
  10
-158.5
  20
-765
  0
VERTEX
  8
1_0
  10
-158.5
  20
-758
  0
VERTEX
  8
1_0
  10
-168.5
  20
-758
  0
VERTEX
  8
1_0
  10
-168.5
  20
-765
  0
VERTEX
  8
1_0
  10
-158.5
  20
-765
  0
SEQEND
  0
POLYLINE
  8
1_0
  70
1
  66
1
  0
VERTEX
  8
1_0
  10
-168.5
  20
-772
  0
VERTEX
  8
1_0
  10
-158.5
  20
-772
  0
VERTEX
  8
1_0
  10
-158.5
  20
-765
  0
VERTEX
  8
1_0
  10
-168.5
  20
-765
  0
VERTEX
  8
1_0
  10
-168.5
  20
-772
  0
SEQEND
  0
POLYLINE
  8
1_0
  70
1
  66
1
  0
VERTEX
  8
1_0
  10
-157.5
  20
-742
  0
VERTEX
  8
1_0
  10
-157.5
  20
-737
  0
VERTEX
  8
1_0
  10
-169.5
  20
-737
  0
VERTEX
  8
1_0
  10
-169.5
  20
-742
  0
VERTEX
  8
1_0
  10
-157.5
  20
-742
  0
SEQEND
  0
POLYLINE
  8
1_0
  70
1
  66
1
  0
VERTEX
  8
1_0
  10
-157.5
  20
-734
  0
VERTEX
  8
1_0
  10
-157.5
  20
-729
  0
VERTEX
  8
1_0
  10
-169.5
  20
-729
  0
VERTEX
  8
1_0
  10
-169.5
  20
-734
  0
VERTEX
  8
1_0
  10
-157.5
  20
-734
  0
SEQEND
  0
POLYLINE
  8
1_0
  70
1
  66
1
  0
VERTEX
  8
1_0
  10
-631.5
  20
-786
  0
VERTEX
  8
1_0
  10
-631.5
  20
-781
  0
VERTEX
  8
1_0
  10
-643.5
  20
-781
  0
VERTEX
  8
1_0
  10
-643.5
  20
-786
  0
VERTEX
  8
1_0
  10
-631.5
  20
-786
  0
SEQEND
  0
POLYLINE
  8
1_0
  70
1
  66
1
  0
VERTEX
  8
1_0
  10
-631.5
  20
-801
  0
VERTEX
  8
1_0
  10
-631.5
  20
-796
  0
VERTEX
  8
1_0
  10
-643.5
  20
-796
  0
VERTEX
  8
1_0
  10
-643.5
  20
-801
  0
VERTEX
  8
1_0
  10
-631.5
  20
-801
  0
SEQEND
  0
POLYLINE
  8
1_0
  70
1
  66
1
  0
VERTEX
  8
1_0
  10
-172.5
  20
-741
  0
VERTEX
  8
1_0
  10
-170.5
  20
-741
  0
VERTEX
  8
1_0
  10
-170.5
  20
-726
  0
VERTEX
  8
1_0
  10
-172.5
  20
-726
  0
VERTEX
  8
1_0
  10
-172.5
  20
-741
  0
SEQEND
  0
POLYLINE
  8
1_0
  70
1
  66
1
  0
VERTEX
  8
1_0
  10
-168.5
  20
-744
  0
VERTEX
  8
1_0
  10
-158.5
  20
-744
  0
VERTEX
  8
1_0
  10
-158.5
  20
-738
  0
VERTEX
  8
1_0
  10
-168.5
  20
-738
  0
VERTEX
  8
1_0
  10
-168.5
  20
-744
  0
SEQEND
  0
POLYLINE
  8
1_0
  70
1
  66
1
  0
VERTEX
  8
1_0
  10
-642.5
  20
-804
  0
VERTEX
  8
1_0
  10
-632.5
  20
-804
  0
VERTEX
  8
1_0
  10
-632.5
  20
-798
  0
VERTEX
  8
1_0
  10
-642.5
  20
-798
  0
VERTEX
  8
1_0
  10
-642.5
  20
-804
  0
SEQEND
  0
POLYLINE
  8
1_0
  70
1
  66
1
  0
VERTEX
  8
1_0
  10
-642.5
  20
-784
  0
VERTEX
  8
1_0
  10
-632.5
  20
-784
  0
VERTEX
  8
1_0
  10
-632.5
  20
-779
  0
VERTEX
  8
1_0
  10
-642.5
  20
-779
  0
VERTEX
  8
1_0
  10
-642.5
  20
-784
  0
SEQEND
  0
POLYLINE
  8
1_0
  70
1
  66
1
  0
VERTEX
  8
1_0
  10
-169.5
  20
-729
  0
VERTEX
  8
1_0
  10
-157.5
  20
-729
  0
VERTEX
  8
1_0
  10
-157.5
  20
-727
  0
VERTEX
  8
1_0
  10
-169.5
  20
-727
  0
VERTEX
  8
1_0
  10
-169.5
  20
-729
  0
SEQEND
  0
POLYLINE
  8
1_0
  70
1
  66
1
  0
VERTEX
  8
1_0
  10
-23.5
  20
-759
  0
VERTEX
  8
1_0
  10
-19.5
  20
-759
  0
VERTEX
  8
1_0
  10
-19.5
  20
-749
  0
VERTEX
  8
1_0
  10
-23.5
  20
-749
  0
VERTEX
  8
1_0
  10
-23.5
  20
-759
  0
SEQEND
  0
POLYLINE
  8
1_0
  70
1
  66
1
  0
VERTEX
  8
1_0
  10
-157.5
  20
-734
  0
VERTEX
  8
1_0
  10
-151.5
  20
-734
  0
VERTEX
  8
1_0
  10
-151.5
  20
-727
  0
VERTEX
  8
1_0
  10
-157.5
  20
-727
  0
VERTEX
  8
1_0
  10
-157.5
  20
-734
  0
SEQEND
  0
POLYLINE
  8
1_0
  70
1
  66
1
  0
VERTEX
  8
1_0
  10
-641.5
  20
-803
  0
VERTEX
  8
1_0
  10
-633.5
  20
-803
  0
VERTEX
  8
1_0
  10
-633.5
  20
-799
  0
VERTEX
  8
1_0
  10
-641.5
  20
-799
  0
VERTEX
  8
1_0
  10
-641.5
  20
-803
  0
SEQEND
  0
POLYLINE
  8
1_0
  70
1
  66
1
  0
VERTEX
  8
1_0
  10
-167.5
  20
-763
  0
VERTEX
  8
1_0
  10
-159.5
  20
-763
  0
VERTEX
  8
1_0
  10
-159.5
  20
-759
  0
VERTEX
  8
1_0
  10
-167.5
  20
-759
  0
VERTEX
  8
1_0
  10
-167.5
  20
-763
  0
SEQEND
  0
POLYLINE
  8
1_0
  70
1
  66
1
  0
VERTEX
  8
1_0
  10
-167.5
  20
-743
  0
VERTEX
  8
1_0
  10
-159.5
  20
-743
  0
VERTEX
  8
1_0
  10
-159.5
  20
-739
  0
VERTEX
  8
1_0
  10
-167.5
  20
-739
  0
VERTEX
  8
1_0
  10
-167.5
  20
-743
  0
SEQEND
  0
POLYLINE
  8
1_0
  70
1
  66
1
  0
VERTEX
  8
1_0
  10
-641.5
  20
-783
  0
VERTEX
  8
1_0
  10
-633.5
  20
-783
  0
VERTEX
  8
1_0
  10
-633.5
  20
-780
  0
VERTEX
  8
1_0
  10
-641.5
  20
-780
  0
VERTEX
  8
1_0
  10
-641.5
  20
-783
  0
SEQEND
  0
POLYLINE
  8
1_0
  70
1
  66
1
  0
VERTEX
  8
1_0
  10
-156.5
  20
-741
  0
VERTEX
  8
1_0
  10
-154.5
  20
-741
  0
VERTEX
  8
1_0
  10
-154.5
  20
-735
  0
VERTEX
  8
1_0
  10
-156.5
  20
-735
  0
VERTEX
  8
1_0
  10
-156.5
  20
-741
  0
SEQEND
  0
ENDBLK
  0
ENDSEC
  0
SECTION
  2
ENTITIES
  0
ENDSEC
  0
EOF
