  0
SECTION
  2
HEADER
  9
$ACADVER
  1
AC1009
  9
$INSUNITS
  70
13
  9
$EXTMIN
  10
-1129
  20
206
  9
$EXTMAX
  10
931
  20
1456
  0
ENDSEC
  0
SECTION
  2
TABLES
  0
TABLE
  2
LTYPE
  70
1
  0
LTYPE
  2
CONTINUOUS
  70
64
  3
Solid line
  72
65
  73
0
  40
0
  0
ENDTAB
  0
TABLE
  2
LAYER
  70
2
  0
LAYER
  2
1_0
  70
0
  62
1
  6
CONTINUOUS
  0
LAYER
  2
56_0
  70
0
  62
1
  6
CONTINUOUS
  0
ENDTAB
  0
ENDSEC
  0
SECTION
  2
BLOCKS
  0
ENDSEC
  0
SECTION
  2
ENTITIES
  0
POLYLINE
  8
1_0
  70
1
  66
1
  0
VERTEX
  8
1_0
  10
-209
  20
607.8
  0
VERTEX
  8
1_0
  10
-210
  20
607.8
  0
VERTEX
  8
1_0
  10
-210
  20
655.25
  0
VERTEX
  8
1_0
  10
-209
  20
655.25
  0
VERTEX
  8
1_0
  10
-209
  20
782.5
  0
VERTEX
  8
1_0
  10
-973.5
  20
782.5
  0
VERTEX
  8
1_0
  10
-973.5
  20
766.5
  0
VERTEX
  8
1_0
  10
-1073.5
  20
766.5
  0
VERTEX
  8
1_0
  10
-1073.5
  20
398
  0
VERTEX
  8
1_0
  10
-211
  20
398
  0
VERTEX
  8
1_0
  10
-211
  20
414
  0
VERTEX
  8
1_0
  10
-215.75
  20
414
  0
VERTEX
  8
1_0
  10
-215.75
  20
485.64
  0
VERTEX
  8
1_0
  10
-267.5
  20
485.64
  0
VERTEX
  8
1_0
  10
-267.5
  20
535.79
  0
VERTEX
  8
1_0
  10
-209
  20
535.79
  0
VERTEX
  8
1_0
  10
-209
  20
607.8
  0
SEQEND
  0
POLYLINE
  8
1_0
  70
1
  66
1
  0
VERTEX
  8
1_0
  10
-498
  20
1241
  0
VERTEX
  8
1_0
  10
-498
  20
1188
  0
VERTEX
  8
1_0
  10
-581.5
  20
1188
  0
VERTEX
  8
1_0
  10
-581.5
  20
1117
  0
VERTEX
  8
1_0
  10
-497.5
  20
1117
  0
VERTEX
  8
1_0
  10
-497.5
  20
852.5
  0
VERTEX
  8
1_0
  10
-973.5
  20
852.5
  0
VERTEX
  8
1_0
  10
-973.5
  20
869.5
  0
VERTEX
  8
1_0
  10
-1073.5
  20
869.5
  0
VERTEX
  8
1_0
  10
-1073.5
  20
1241
  0
VERTEX
  8
1_0
  10
-498
  20
1241
  0
SEQEND
  0
POLYLINE
  8
1_0
  70
1
  66
1
  0
VERTEX
  8
1_0
  10
333
  20
1081.1
  0
VERTEX
  8
1_0
  10
332.8
  20
1081.1
  0
VERTEX
  8
1_0
  10
332.8
  20
1082
  0
VERTEX
  8
1_0
  10
268
  20
1082
  0
VERTEX
  8
1_0
  10
268
  20
998
  0
VERTEX
  8
1_0
  10
197
  20
998
  0
VERTEX
  8
1_0
  10
197
  20
1082
  0
VERTEX
  8
1_0
  10
154
  20
1082
  0
VERTEX
  8
1_0
  10
154
  20
1268.8
  0
VERTEX
  8
1_0
  10
49.7
  20
1268.8
  0
VERTEX
  8
1_0
  10
49.7
  20
1320
  0
VERTEX
  8
1_0
  10
-133
  20
1320
  0
VERTEX
  8
1_0
  10
-133
  20
1127
  0
VERTEX
  8
1_0
  10
-50
  20
1127
  0
VERTEX
  8
1_0
  10
-50
  20
1056.5
  0
VERTEX
  8
1_0
  10
-133
  20
1056.5
  0
VERTEX
  8
1_0
  10
-133
  20
1039
  0
VERTEX
  8
1_0
  10
-133.6
  20
1039
  0
VERTEX
  8
1_0
  10
-133.6
  20
987.7
  0
VERTEX
  8
1_0
  10
-134
  20
987.7
  0
VERTEX
  8
1_0
  10
-134
  20
852.5
  0
VERTEX
  8
1_0
  10
104.75
  20
852.5
  0
VERTEX
  8
1_0
  10
190.25
  20
937.5
  0
VERTEX
  8
1_0
  10
333
  20
937.5
  0
VERTEX
  8
1_0
  10
333
  20
1081.1
  0
SEQEND
  0
POLYLINE
  8
1_0
  70
1
  66
1
  0
VERTEX
  8
1_0
  10
874
  20
1306
  0
VERTEX
  8
1_0
  10
745
  20
1306
  0
VERTEX
  8
1_0
  10
745
  20
1383.5
  0
VERTEX
  8
1_0
  10
553
  20
1383.5
  0
VERTEX
  8
1_0
  10
553
  20
1138
  0
VERTEX
  8
1_0
  10
476.25
  20
1138
  0
VERTEX
  8
1_0
  10
476.25
  20
1108.5
  0
VERTEX
  8
1_0
  10
477.5
  20
1108.5
  0
VERTEX
  8
1_0
  10
477.5
  20
1065.5
  0
VERTEX
  8
1_0
  10
476.25
  20
1065.5
  0
VERTEX
  8
1_0
  10
476.25
  20
937.25
  0
VERTEX
  8
1_0
  10
574
  20
937.25
  0
VERTEX
  8
1_0
  10
658.5
  20
852.5
  0
VERTEX
  8
1_0
  10
776
  20
852.5
  0
VERTEX
  8
1_0
  10
776
  20
967.5
  0
VERTEX
  8
1_0
  10
874
  20
967.5
  0
VERTEX
  8
1_0
  10
874
  20
1306
  0
SEQEND
  0
POLYLINE
  8
1_0
  70
1
  66
1
  0
VERTEX
  8
1_0
  10
446.75
  20
526.5
  0
VERTEX
  8
1_0
  10
445.5
  20
526.5
  0
VERTEX
  8
1_0
  10
445.5
  20
569.5
  0
VERTEX
  8
1_0
  10
446.75
  20
569.5
  0
VERTEX
  8
1_0
  10
446.75
  20
697.75
  0
VERTEX
  8
1_0
  10
189.75
  20
697.75
  0
VERTEX
  8
1_0
  10
105
  20
782.5
  0
VERTEX
  8
1_0
  10
27.75
  20
782.5
  0
VERTEX
  8
1_0
  10
27.75
  20
643.25
  0
VERTEX
  8
1_0
  10
28.75
  20
643.25
  0
VERTEX
  8
1_0
  10
28.75
  20
613.25
  0
VERTEX
  8
1_0
  10
27.75
  20
613.25
  0
VERTEX
  8
1_0
  10
27.75
  20
558.25
  0
VERTEX
  8
1_0
  10
85.25
  20
558.25
  0
VERTEX
  8
1_0
  10
85.25
  20
507.5
  0
VERTEX
  8
1_0
  10
29
  20
507.5
  0
VERTEX
  8
1_0
  10
29
  20
378
  0
VERTEX
  8
1_0
  10
103
  20
378
  0
VERTEX
  8
1_0
  10
103
  20
334.5
  0
VERTEX
  8
1_0
  10
323.5
  20
334.5
  0
VERTEX
  8
1_0
  10
323.5
  20
496
  0
VERTEX
  8
1_0
  10
446.75
  20
496
  0
VERTEX
  8
1_0
  10
446.75
  20
526.5
  0
SEQEND
  0
POLYLINE
  8
1_0
  70
1
  66
1
  0
VERTEX
  8
1_0
  10
874
  20
667.5
  0
VERTEX
  8
1_0
  10
776
  20
667.5
  0
VERTEX
  8
1_0
  10
776
  20
782.5
  0
VERTEX
  8
1_0
  10
658.53
  20
782.5
  0
VERTEX
  8
1_0
  10
574.09
  20
697.65
  0
VERTEX
  8
1_0
  10
476.35
  20
697.65
  0
VERTEX
  8
1_0
  10
476.35
  20
569.7
  0
VERTEX
  8
1_0
  10
477.65
  20
569.7
  0
VERTEX
  8
1_0
  10
477.65
  20
526.5
  0
VERTEX
  8
1_0
  10
476.35
  20
526.5
  0
VERTEX
  8
1_0
  10
476.35
  20
496
  0
VERTEX
  8
1_0
  10
550
  20
496
  0
VERTEX
  8
1_0
  10
550
  20
368
  0
VERTEX
  8
1_0
  10
874
  20
368
  0
VERTEX
  8
1_0
  10
874
  20
667.5
  0
SEQEND
  0
POLYLINE
  8
1_0
  70
1
  66
1
  0
VERTEX
  8
1_0
  10
-163.69
  20
852.5
  0
VERTEX
  8
1_0
  10
-163.69
  20
1046.5
  0
VERTEX
  8
1_0
  10
-220.94
  20
1046.5
  0
VERTEX
  8
1_0
  10
-220.94
  20
1137.5
  0
VERTEX
  8
1_0
  10
-164.19
  20
1137.5
  0
VERTEX
  8
1_0
  10
-164.19
  20
1243.5
  0
VERTEX
  8
1_0
  10
-466
  20
1243.5
  0
VERTEX
  8
1_0
  10
-466
  20
1200.5
  0
VERTEX
  8
1_0
  10
-413
  20
1200.5
  0
VERTEX
  8
1_0
  10
-413
  20
1107
  0
VERTEX
  8
1_0
  10
-467
  20
1107
  0
VERTEX
  8
1_0
  10
-467
  20
852.5
  0
VERTEX
  8
1_0
  10
-163.69
  20
852.5
  0
SEQEND
  0
POLYLINE
  8
1_0
  70
1
  66
1
  0
VERTEX
  8
1_0
  10
-1073.5
  20
261
  0
VERTEX
  8
1_0
  10
-528
  20
261
  0
VERTEX
  8
1_0
  10
-528
  20
398
  0
VERTEX
  8
1_0
  10
-1073.5
  20
398
  0
VERTEX
  8
1_0
  10
-1073.5
  20
261
  0
SEQEND
  0
POLYLINE
  8
1_0
  70
1
  66
1
  0
VERTEX
  8
1_0
  10
-2.25
  20
613.8
  0
VERTEX
  8
1_0
  10
-3.35
  20
613.8
  0
VERTEX
  8
1_0
  10
-3.35
  20
643.5
  0
VERTEX
  8
1_0
  10
-2.25
  20
643.5
  0
VERTEX
  8
1_0
  10
-2.25
  20
782.5
  0
VERTEX
  8
1_0
  10
-179
  20
782.5
  0
VERTEX
  8
1_0
  10
-179
  20
655.5
  0
VERTEX
  8
1_0
  10
-177.75
  20
655.5
  0
VERTEX
  8
1_0
  10
-177.75
  20
607.5
  0
VERTEX
  8
1_0
  10
-179
  20
607.5
  0
VERTEX
  8
1_0
  10
-179
  20
536.77
  0
VERTEX
  8
1_0
  10
-119.5
  20
536.77
  0
VERTEX
  8
1_0
  10
-119.5
  20
485.64
  0
VERTEX
  8
1_0
  10
-177.25
  20
485.64
  0
VERTEX
  8
1_0
  10
-177.25
  20
300.5
  0
VERTEX
  8
1_0
  10
-84
  20
300.5
  0
VERTEX
  8
1_0
  10
-84
  20
374
  0
VERTEX
  8
1_0
  10
-3.5
  20
374
  0
VERTEX
  8
1_0
  10
-3.5
  20
508.5
  0
VERTEX
  8
1_0
  10
-61.35
  20
508.5
  0
VERTEX
  8
1_0
  10
-61.35
  20
558.5
  0
VERTEX
  8
1_0
  10
-2.25
  20
558.5
  0
VERTEX
  8
1_0
  10
-2.25
  20
613.8
  0
SEQEND
  0
POLYLINE
  8
1_0
  70
1
  66
1
  0
VERTEX
  8
1_0
  10
-1073.5
  20
1241
  0
VERTEX
  8
1_0
  10
-580
  20
1241
  0
VERTEX
  8
1_0
  10
-580
  20
1386
  0
VERTEX
  8
1_0
  10
-1073.5
  20
1386
  0
VERTEX
  8
1_0
  10
-1073.5
  20
1241
  0
SEQEND
  0
POLYLINE
  8
1_0
  70
1
  66
1
  0
VERTEX
  8
1_0
  10
447
  20
1065.25
  0
VERTEX
  8
1_0
  10
445.5
  20
1065.25
  0
VERTEX
  8
1_0
  10
445.5
  20
1108.65
  0
VERTEX
  8
1_0
  10
447
  20
1108.65
  0
VERTEX
  8
1_0
  10
447
  20
1138
  0
VERTEX
  8
1_0
  10
363
  20
1138
  0
VERTEX
  8
1_0
  10
363
  20
1270
  0
VERTEX
  8
1_0
  10
197
  20
1270
  0
VERTEX
  8
1_0
  10
197
  20
1196
  0
VERTEX
  8
1_0
  10
268
  20
1196
  0
VERTEX
  8
1_0
  10
268
  20
1112.5
  0
VERTEX
  8
1_0
  10
363
  20
1112.5
  0
VERTEX
  8
1_0
  10
363
  20
937.5
  0
VERTEX
  8
1_0
  10
447
  20
937.5
  0
VERTEX
  8
1_0
  10
447
  20
1065.25
  0
SEQEND
  0
POLYLINE
  8
1_0
  70
1
  66
1
  0
VERTEX
  8
1_0
  10
-464
  20
1041.75
  0
VERTEX
  8
1_0
  10
-166
  20
1041.75
  0
VERTEX
  8
1_0
  10
-166
  20
1200.75
  0
VERTEX
  8
1_0
  10
-464
  20
1200.75
  0
VERTEX
  8
1_0
  10
-464
  20
1041.75
  0
SEQEND
  0
POLYLINE
  8
1_0
  70
1
  66
1
  0
VERTEX
  8
1_0
  10
536
  20
261.5
  0
VERTEX
  8
1_0
  10
874
  20
261.5
  0
VERTEX
  8
1_0
  10
874
  20
368
  0
VERTEX
  8
1_0
  10
536
  20
368
  0
VERTEX
  8
1_0
  10
536
  20
261.5
  0
SEQEND
  0
POLYLINE
  8
1_0
  70
1
  66
1
  0
VERTEX
  8
1_0
  10
826
  20
1068
  0
VERTEX
  8
1_0
  10
876
  20
1068
  0
VERTEX
  8
1_0
  10
876
  20
1309
  0
VERTEX
  8
1_0
  10
826
  20
1309
  0
VERTEX
  8
1_0
  10
826
  20
1068
  0
SEQEND
  0
POLYLINE
  8
1_0
  70
1
  66
1
  0
VERTEX
  8
1_0
  10
164
  20
1086.5
  0
VERTEX
  8
1_0
  10
186.5
  20
1086.5
  0
VERTEX
  8
1_0
  10
186.5
  20
1301
  0
VERTEX
  8
1_0
  10
164
  20
1301
  0
VERTEX
  8
1_0
  10
164
  20
1086.5
  0
SEQEND
  0
POLYLINE
  8
1_0
  70
1
  66
1
  0
VERTEX
  8
1_0
  10
-407.5
  20
368
  0
VERTEX
  8
1_0
  10
-194
  20
368
  0
VERTEX
  8
1_0
  10
-194
  20
391
  0
VERTEX
  8
1_0
  10
-407.5
  20
391
  0
VERTEX
  8
1_0
  10
-407.5
  20
368
  0
SEQEND
  0
POLYLINE
  8
1_0
  70
1
  66
1
  0
VERTEX
  8
1_0
  10
-159.19
  20
1075
  0
VERTEX
  8
1_0
  10
-138.19
  20
1075
  0
VERTEX
  8
1_0
  10
-138.19
  20
1271.5
  0
VERTEX
  8
1_0
  10
-159.19
  20
1271.5
  0
VERTEX
  8
1_0
  10
-159.19
  20
1075
  0
SEQEND
  0
POLYLINE
  8
1_0
  70
1
  66
1
  0
VERTEX
  8
1_0
  10
773
  20
666.5
  0
VERTEX
  8
1_0
  10
875
  20
666.5
  0
VERTEX
  8
1_0
  10
875
  20
768.5
  0
VERTEX
  8
1_0
  10
773
  20
768.5
  0
VERTEX
  8
1_0
  10
773
  20
666.5
  0
SEQEND
  0
POLYLINE
  8
1_0
  70
1
  66
1
  0
VERTEX
  8
1_0
  10
-523
  20
1285
  0
VERTEX
  8
1_0
  10
-421
  20
1285
  0
VERTEX
  8
1_0
  10
-421
  20
1387
  0
VERTEX
  8
1_0
  10
-523
  20
1387
  0
VERTEX
  8
1_0
  10
-523
  20
1285
  0
SEQEND
  0
POLYLINE
  8
1_0
  70
1
  66
1
  0
VERTEX
  8
1_0
  10
773
  20
866.5
  0
VERTEX
  8
1_0
  10
875
  20
866.5
  0
VERTEX
  8
1_0
  10
875
  20
968.5
  0
VERTEX
  8
1_0
  10
773
  20
968.5
  0
VERTEX
  8
1_0
  10
773
  20
866.5
  0
SEQEND
  0
POLYLINE
  8
1_0
  70
1
  66
1
  0
VERTEX
  8
1_0
  10
-464
  20
259.5
  0
VERTEX
  8
1_0
  10
-362
  20
259.5
  0
VERTEX
  8
1_0
  10
-362
  20
361.5
  0
VERTEX
  8
1_0
  10
-464
  20
361.5
  0
VERTEX
  8
1_0
  10
-464
  20
259.5
  0
SEQEND
  0
POLYLINE
  8
1_0
  70
1
  66
1
  0
VERTEX
  8
1_0
  10
-64
  20
259.5
  0
VERTEX
  8
1_0
  10
38
  20
259.5
  0
VERTEX
  8
1_0
  10
38
  20
361.5
  0
VERTEX
  8
1_0
  10
-64
  20
361.5
  0
VERTEX
  8
1_0
  10
-64
  20
259.5
  0
SEQEND
  0
POLYLINE
  8
1_0
  70
1
  66
1
  0
VERTEX
  8
1_0
  10
-323
  20
1285
  0
VERTEX
  8
1_0
  10
-221
  20
1285
  0
VERTEX
  8
1_0
  10
-221
  20
1387
  0
VERTEX
  8
1_0
  10
-323
  20
1387
  0
VERTEX
  8
1_0
  10
-323
  20
1285
  0
SEQEND
  0
POLYLINE
  8
1_0
  70
1
  66
1
  0
VERTEX
  8
1_0
  10
-664
  20
259.5
  0
VERTEX
  8
1_0
  10
-562
  20
259.5
  0
VERTEX
  8
1_0
  10
-562
  20
361.5
  0
VERTEX
  8
1_0
  10
-664
  20
361.5
  0
VERTEX
  8
1_0
  10
-664
  20
259.5
  0
SEQEND
  0
POLYLINE
  8
1_0
  70
1
  66
1
  0
VERTEX
  8
1_0
  10
77
  20
1285
  0
VERTEX
  8
1_0
  10
179
  20
1285
  0
VERTEX
  8
1_0
  10
179
  20
1387
  0
VERTEX
  8
1_0
  10
77
  20
1387
  0
VERTEX
  8
1_0
  10
77
  20
1285
  0
SEQEND
  0
POLYLINE
  8
1_0
  70
1
  66
1
  0
VERTEX
  8
1_0
  10
336
  20
259.5
  0
VERTEX
  8
1_0
  10
438
  20
259.5
  0
VERTEX
  8
1_0
  10
438
  20
361.5
  0
VERTEX
  8
1_0
  10
336
  20
361.5
  0
VERTEX
  8
1_0
  10
336
  20
259.5
  0
SEQEND
  0
POLYLINE
  8
1_0
  70
1
  66
1
  0
VERTEX
  8
1_0
  10
477
  20
1285
  0
VERTEX
  8
1_0
  10
579
  20
1285
  0
VERTEX
  8
1_0
  10
579
  20
1387
  0
VERTEX
  8
1_0
  10
477
  20
1387
  0
VERTEX
  8
1_0
  10
477
  20
1285
  0
SEQEND
  0
POLYLINE
  8
1_0
  70
1
  66
1
  0
VERTEX
  8
1_0
  10
536
  20
259.5
  0
VERTEX
  8
1_0
  10
638
  20
259.5
  0
VERTEX
  8
1_0
  10
638
  20
361.5
  0
VERTEX
  8
1_0
  10
536
  20
361.5
  0
VERTEX
  8
1_0
  10
536
  20
259.5
  0
SEQEND
  0
POLYLINE
  8
1_0
  70
1
  66
1
  0
VERTEX
  8
1_0
  10
-264
  20
259.5
  0
VERTEX
  8
1_0
  10
-162
  20
259.5
  0
VERTEX
  8
1_0
  10
-162
  20
361.5
  0
VERTEX
  8
1_0
  10
-264
  20
361.5
  0
VERTEX
  8
1_0
  10
-264
  20
259.5
  0
SEQEND
  0
POLYLINE
  8
1_0
  70
1
  66
1
  0
VERTEX
  8
1_0
  10
-123
  20
1285
  0
VERTEX
  8
1_0
  10
-21
  20
1285
  0
VERTEX
  8
1_0
  10
-21
  20
1387
  0
VERTEX
  8
1_0
  10
-123
  20
1387
  0
VERTEX
  8
1_0
  10
-123
  20
1285
  0
SEQEND
  0
POLYLINE
  8
1_0
  70
1
  66
1
  0
VERTEX
  8
1_0
  10
136
  20
259.5
  0
VERTEX
  8
1_0
  10
238
  20
259.5
  0
VERTEX
  8
1_0
  10
238
  20
361.5
  0
VERTEX
  8
1_0
  10
136
  20
361.5
  0
VERTEX
  8
1_0
  10
136
  20
259.5
  0
SEQEND
  0
POLYLINE
  8
1_0
  70
1
  66
1
  0
VERTEX
  8
1_0
  10
277
  20
1285
  0
VERTEX
  8
1_0
  10
379
  20
1285
  0
VERTEX
  8
1_0
  10
379
  20
1387
  0
VERTEX
  8
1_0
  10
277
  20
1387
  0
VERTEX
  8
1_0
  10
277
  20
1285
  0
SEQEND
  0
POLYLINE
  8
1_0
  70
1
  66
1
  0
VERTEX
  8
1_0
  10
-723
  20
1285
  0
VERTEX
  8
1_0
  10
-621
  20
1285
  0
VERTEX
  8
1_0
  10
-621
  20
1387
  0
VERTEX
  8
1_0
  10
-723
  20
1387
  0
VERTEX
  8
1_0
  10
-723
  20
1285
  0
SEQEND
  0
POLYLINE
  8
1_0
  70
1
  66
1
  0
VERTEX
  8
1_0
  10
320.6
  20
367.5
  0
VERTEX
  8
1_0
  10
443.1
  20
367.5
  0
VERTEX
  8
1_0
  10
443.1
  20
446.5
  0
VERTEX
  8
1_0
  10
320.6
  20
446.5
  0
VERTEX
  8
1_0
  10
320.6
  20
367.5
  0
SEQEND
  0
POLYLINE
  8
1_0
  70
1
  66
1
  0
VERTEX
  8
1_0
  10
-1073.5
  20
868.5
  0
VERTEX
  8
1_0
  10
-973.5
  20
868.5
  0
VERTEX
  8
1_0
  10
-973.5
  20
968.5
  0
VERTEX
  8
1_0
  10
-1073.5
  20
968.5
  0
VERTEX
  8
1_0
  10
-1073.5
  20
868.5
  0
SEQEND
  0
POLYLINE
  8
1_0
  70
1
  66
1
  0
VERTEX
  8
1_0
  10
774
  20
667.5
  0
VERTEX
  8
1_0
  10
874
  20
667.5
  0
VERTEX
  8
1_0
  10
874
  20
767.5
  0
VERTEX
  8
1_0
  10
774
  20
767.5
  0
VERTEX
  8
1_0
  10
774
  20
667.5
  0
SEQEND
  0
POLYLINE
  8
1_0
  70
1
  66
1
  0
VERTEX
  8
1_0
  10
537
  20
260.5
  0
VERTEX
  8
1_0
  10
637
  20
260.5
  0
VERTEX
  8
1_0
  10
637
  20
360.5
  0
VERTEX
  8
1_0
  10
537
  20
360.5
  0
VERTEX
  8
1_0
  10
537
  20
260.5
  0
SEQEND
  0
POLYLINE
  8
1_0
  70
1
  66
1
  0
VERTEX
  8
1_0
  10
-722
  20
1286
  0
VERTEX
  8
1_0
  10
-622
  20
1286
  0
VERTEX
  8
1_0
  10
-622
  20
1386
  0
VERTEX
  8
1_0
  10
-722
  20
1386
  0
VERTEX
  8
1_0
  10
-722
  20
1286
  0
SEQEND
  0
POLYLINE
  8
1_0
  70
1
  66
1
  0
VERTEX
  8
1_0
  10
-663
  20
260.5
  0
VERTEX
  8
1_0
  10
-563
  20
260.5
  0
VERTEX
  8
1_0
  10
-563
  20
360.5
  0
VERTEX
  8
1_0
  10
-663
  20
360.5
  0
VERTEX
  8
1_0
  10
-663
  20
260.5
  0
SEQEND
  0
POLYLINE
  8
1_0
  70
1
  66
1
  0
VERTEX
  8
1_0
  10
-522
  20
1286
  0
VERTEX
  8
1_0
  10
-422
  20
1286
  0
VERTEX
  8
1_0
  10
-422
  20
1386
  0
VERTEX
  8
1_0
  10
-522
  20
1386
  0
VERTEX
  8
1_0
  10
-522
  20
1286
  0
SEQEND
  0
POLYLINE
  8
1_0
  70
1
  66
1
  0
VERTEX
  8
1_0
  10
-63
  20
260.5
  0
VERTEX
  8
1_0
  10
37
  20
260.5
  0
VERTEX
  8
1_0
  10
37
  20
360.5
  0
VERTEX
  8
1_0
  10
-63
  20
360.5
  0
VERTEX
  8
1_0
  10
-63
  20
260.5
  0
SEQEND
  0
POLYLINE
  8
1_0
  70
1
  66
1
  0
VERTEX
  8
1_0
  10
78
  20
1286
  0
VERTEX
  8
1_0
  10
178
  20
1286
  0
VERTEX
  8
1_0
  10
178
  20
1386
  0
VERTEX
  8
1_0
  10
78
  20
1386
  0
VERTEX
  8
1_0
  10
78
  20
1286
  0
SEQEND
  0
POLYLINE
  8
1_0
  70
1
  66
1
  0
VERTEX
  8
1_0
  10
-322
  20
1286
  0
VERTEX
  8
1_0
  10
-222
  20
1286
  0
VERTEX
  8
1_0
  10
-222
  20
1386
  0
VERTEX
  8
1_0
  10
-322
  20
1386
  0
VERTEX
  8
1_0
  10
-322
  20
1286
  0
SEQEND
  0
POLYLINE
  8
1_0
  70
1
  66
1
  0
VERTEX
  8
1_0
  10
137
  20
260.5
  0
VERTEX
  8
1_0
  10
237
  20
260.5
  0
VERTEX
  8
1_0
  10
237
  20
360.5
  0
VERTEX
  8
1_0
  10
137
  20
360.5
  0
VERTEX
  8
1_0
  10
137
  20
260.5
  0
SEQEND
  0
POLYLINE
  8
1_0
  70
1
  66
1
  0
VERTEX
  8
1_0
  10
278
  20
1286
  0
VERTEX
  8
1_0
  10
378
  20
1286
  0
VERTEX
  8
1_0
  10
378
  20
1386
  0
VERTEX
  8
1_0
  10
278
  20
1386
  0
VERTEX
  8
1_0
  10
278
  20
1286
  0
SEQEND
  0
POLYLINE
  8
1_0
  70
1
  66
1
  0
VERTEX
  8
1_0
  10
-263
  20
260.5
  0
VERTEX
  8
1_0
  10
-163
  20
260.5
  0
VERTEX
  8
1_0
  10
-163
  20
360.5
  0
VERTEX
  8
1_0
  10
-263
  20
360.5
  0
VERTEX
  8
1_0
  10
-263
  20
260.5
  0
SEQEND
  0
POLYLINE
  8
1_0
  70
1
  66
1
  0
VERTEX
  8
1_0
  10
337
  20
260.5
  0
VERTEX
  8
1_0
  10
437
  20
260.5
  0
VERTEX
  8
1_0
  10
437
  20
360.5
  0
VERTEX
  8
1_0
  10
337
  20
360.5
  0
VERTEX
  8
1_0
  10
337
  20
260.5
  0
SEQEND
  0
POLYLINE
  8
1_0
  70
1
  66
1
  0
VERTEX
  8
1_0
  10
-463
  20
260.5
  0
VERTEX
  8
1_0
  10
-363
  20
260.5
  0
VERTEX
  8
1_0
  10
-363
  20
360.5
  0
VERTEX
  8
1_0
  10
-463
  20
360.5
  0
VERTEX
  8
1_0
  10
-463
  20
260.5
  0
SEQEND
  0
POLYLINE
  8
1_0
  70
1
  66
1
  0
VERTEX
  8
1_0
  10
-722
  20
1286
  0
VERTEX
  8
1_0
  10
-622
  20
1286
  0
VERTEX
  8
1_0
  10
-622
  20
1386
  0
VERTEX
  8
1_0
  10
-722
  20
1386
  0
VERTEX
  8
1_0
  10
-722
  20
1286
  0
SEQEND
  0
POLYLINE
  8
1_0
  70
1
  66
1
  0
VERTEX
  8
1_0
  10
-663
  20
260.5
  0
VERTEX
  8
1_0
  10
-563
  20
260.5
  0
VERTEX
  8
1_0
  10
-563
  20
360.5
  0
VERTEX
  8
1_0
  10
-663
  20
360.5
  0
VERTEX
  8
1_0
  10
-663
  20
260.5
  0
SEQEND
  0
POLYLINE
  8
1_0
  70
1
  66
1
  0
VERTEX
  8
1_0
  10
-1073.5
  20
666.5
  0
VERTEX
  8
1_0
  10
-973.5
  20
666.5
  0
VERTEX
  8
1_0
  10
-973.5
  20
766.5
  0
VERTEX
  8
1_0
  10
-1073.5
  20
766.5
  0
VERTEX
  8
1_0
  10
-1073.5
  20
666.5
  0
SEQEND
  0
POLYLINE
  8
1_0
  70
1
  66
1
  0
VERTEX
  8
1_0
  10
774
  20
867.5
  0
VERTEX
  8
1_0
  10
874
  20
867.5
  0
VERTEX
  8
1_0
  10
874
  20
967.5
  0
VERTEX
  8
1_0
  10
774
  20
967.5
  0
VERTEX
  8
1_0
  10
774
  20
867.5
  0
SEQEND
  0
POLYLINE
  8
1_0
  70
1
  66
1
  0
VERTEX
  8
1_0
  10
478
  20
1286
  0
VERTEX
  8
1_0
  10
578
  20
1286
  0
VERTEX
  8
1_0
  10
578
  20
1386
  0
VERTEX
  8
1_0
  10
478
  20
1386
  0
VERTEX
  8
1_0
  10
478
  20
1286
  0
SEQEND
  0
POLYLINE
  8
1_0
  70
1
  66
1
  0
VERTEX
  8
1_0
  10
-122
  20
1286
  0
VERTEX
  8
1_0
  10
-22
  20
1286
  0
VERTEX
  8
1_0
  10
-22
  20
1386
  0
VERTEX
  8
1_0
  10
-122
  20
1386
  0
VERTEX
  8
1_0
  10
-122
  20
1286
  0
SEQEND
  0
POLYLINE
  8
1_0
  70
1
  66
1
  0
VERTEX
  8
1_0
  10
-1073.5
  20
868.5
  0
VERTEX
  8
1_0
  10
-973.5
  20
868.5
  0
VERTEX
  8
1_0
  10
-973.5
  20
968.5
  0
VERTEX
  8
1_0
  10
-1073.5
  20
968.5
  0
VERTEX
  8
1_0
  10
-1073.5
  20
868.5
  0
SEQEND
  0
POLYLINE
  8
1_0
  70
1
  66
1
  0
VERTEX
  8
1_0
  10
-322
  20
1286
  0
VERTEX
  8
1_0
  10
-222
  20
1286
  0
VERTEX
  8
1_0
  10
-222
  20
1386
  0
VERTEX
  8
1_0
  10
-322
  20
1386
  0
VERTEX
  8
1_0
  10
-322
  20
1286
  0
SEQEND
  0
POLYLINE
  8
1_0
  70
1
  66
1
  0
VERTEX
  8
1_0
  10
-122
  20
1286
  0
VERTEX
  8
1_0
  10
-22
  20
1286
  0
VERTEX
  8
1_0
  10
-22
  20
1386
  0
VERTEX
  8
1_0
  10
-122
  20
1386
  0
VERTEX
  8
1_0
  10
-122
  20
1286
  0
SEQEND
  0
POLYLINE
  8
1_0
  70
1
  66
1
  0
VERTEX
  8
1_0
  10
78
  20
1286
  0
VERTEX
  8
1_0
  10
178
  20
1286
  0
VERTEX
  8
1_0
  10
178
  20
1386
  0
VERTEX
  8
1_0
  10
78
  20
1386
  0
VERTEX
  8
1_0
  10
78
  20
1286
  0
SEQEND
  0
POLYLINE
  8
1_0
  70
1
  66
1
  0
VERTEX
  8
1_0
  10
278
  20
1286
  0
VERTEX
  8
1_0
  10
378
  20
1286
  0
VERTEX
  8
1_0
  10
378
  20
1386
  0
VERTEX
  8
1_0
  10
278
  20
1386
  0
VERTEX
  8
1_0
  10
278
  20
1286
  0
SEQEND
  0
POLYLINE
  8
1_0
  70
1
  66
1
  0
VERTEX
  8
1_0
  10
-1073.5
  20
666.5
  0
VERTEX
  8
1_0
  10
-973.5
  20
666.5
  0
VERTEX
  8
1_0
  10
-973.5
  20
766.5
  0
VERTEX
  8
1_0
  10
-1073.5
  20
766.5
  0
VERTEX
  8
1_0
  10
-1073.5
  20
666.5
  0
SEQEND
  0
POLYLINE
  8
1_0
  70
1
  66
1
  0
VERTEX
  8
1_0
  10
774
  20
867.5
  0
VERTEX
  8
1_0
  10
874
  20
867.5
  0
VERTEX
  8
1_0
  10
874
  20
967.5
  0
VERTEX
  8
1_0
  10
774
  20
967.5
  0
VERTEX
  8
1_0
  10
774
  20
867.5
  0
SEQEND
  0
POLYLINE
  8
1_0
  70
1
  66
1
  0
VERTEX
  8
1_0
  10
774
  20
667.5
  0
VERTEX
  8
1_0
  10
874
  20
667.5
  0
VERTEX
  8
1_0
  10
874
  20
767.5
  0
VERTEX
  8
1_0
  10
774
  20
767.5
  0
VERTEX
  8
1_0
  10
774
  20
667.5
  0
SEQEND
  0
POLYLINE
  8
1_0
  70
1
  66
1
  0
VERTEX
  8
1_0
  10
-522
  20
1286
  0
VERTEX
  8
1_0
  10
-422
  20
1286
  0
VERTEX
  8
1_0
  10
-422
  20
1386
  0
VERTEX
  8
1_0
  10
-522
  20
1386
  0
VERTEX
  8
1_0
  10
-522
  20
1286
  0
SEQEND
  0
POLYLINE
  8
1_0
  70
1
  66
1
  0
VERTEX
  8
1_0
  10
478
  20
1286
  0
VERTEX
  8
1_0
  10
578
  20
1286
  0
VERTEX
  8
1_0
  10
578
  20
1386
  0
VERTEX
  8
1_0
  10
478
  20
1386
  0
VERTEX
  8
1_0
  10
478
  20
1286
  0
SEQEND
  0
POLYLINE
  8
1_0
  70
1
  66
1
  0
VERTEX
  8
1_0
  10
-63
  20
260.5
  0
VERTEX
  8
1_0
  10
37
  20
260.5
  0
VERTEX
  8
1_0
  10
37
  20
360.5
  0
VERTEX
  8
1_0
  10
-63
  20
360.5
  0
VERTEX
  8
1_0
  10
-63
  20
260.5
  0
SEQEND
  0
POLYLINE
  8
1_0
  70
1
  66
1
  0
VERTEX
  8
1_0
  10
537
  20
260.5
  0
VERTEX
  8
1_0
  10
637
  20
260.5
  0
VERTEX
  8
1_0
  10
637
  20
360.5
  0
VERTEX
  8
1_0
  10
537
  20
360.5
  0
VERTEX
  8
1_0
  10
537
  20
260.5
  0
SEQEND
  0
POLYLINE
  8
1_0
  70
1
  66
1
  0
VERTEX
  8
1_0
  10
337
  20
260.5
  0
VERTEX
  8
1_0
  10
437
  20
260.5
  0
VERTEX
  8
1_0
  10
437
  20
360.5
  0
VERTEX
  8
1_0
  10
337
  20
360.5
  0
VERTEX
  8
1_0
  10
337
  20
260.5
  0
SEQEND
  0
POLYLINE
  8
1_0
  70
1
  66
1
  0
VERTEX
  8
1_0
  10
-263
  20
260.5
  0
VERTEX
  8
1_0
  10
-163
  20
260.5
  0
VERTEX
  8
1_0
  10
-163
  20
360.5
  0
VERTEX
  8
1_0
  10
-263
  20
360.5
  0
VERTEX
  8
1_0
  10
-263
  20
260.5
  0
SEQEND
  0
POLYLINE
  8
1_0
  70
1
  66
1
  0
VERTEX
  8
1_0
  10
-463
  20
260.5
  0
VERTEX
  8
1_0
  10
-363
  20
260.5
  0
VERTEX
  8
1_0
  10
-363
  20
360.5
  0
VERTEX
  8
1_0
  10
-463
  20
360.5
  0
VERTEX
  8
1_0
  10
-463
  20
260.5
  0
SEQEND
  0
POLYLINE
  8
1_0
  70
1
  66
1
  0
VERTEX
  8
1_0
  10
137
  20
260.5
  0
VERTEX
  8
1_0
  10
237
  20
260.5
  0
VERTEX
  8
1_0
  10
237
  20
360.5
  0
VERTEX
  8
1_0
  10
137
  20
360.5
  0
VERTEX
  8
1_0
  10
137
  20
260.5
  0
SEQEND
  0
POLYLINE
  8
1_0
  70
1
  66
1
  0
VERTEX
  8
1_0
  10
-1072.5
  20
869.5
  0
VERTEX
  8
1_0
  10
-974.5
  20
869.5
  0
VERTEX
  8
1_0
  10
-974.5
  20
967.5
  0
VERTEX
  8
1_0
  10
-1072.5
  20
967.5
  0
VERTEX
  8
1_0
  10
-1072.5
  20
869.5
  0
SEQEND
  0
POLYLINE
  8
1_0
  70
1
  66
1
  0
VERTEX
  8
1_0
  10
-1072.5
  20
667.5
  0
VERTEX
  8
1_0
  10
-974.5
  20
667.5
  0
VERTEX
  8
1_0
  10
-974.5
  20
765.5
  0
VERTEX
  8
1_0
  10
-1072.5
  20
765.5
  0
VERTEX
  8
1_0
  10
-1072.5
  20
667.5
  0
SEQEND
  0
POLYLINE
  8
1_0
  70
1
  66
1
  0
VERTEX
  8
1_0
  10
775
  20
868.5
  0
VERTEX
  8
1_0
  10
873
  20
868.5
  0
VERTEX
  8
1_0
  10
873
  20
966.5
  0
VERTEX
  8
1_0
  10
775
  20
966.5
  0
VERTEX
  8
1_0
  10
775
  20
868.5
  0
SEQEND
  0
POLYLINE
  8
1_0
  70
1
  66
1
  0
VERTEX
  8
1_0
  10
775
  20
668.5
  0
VERTEX
  8
1_0
  10
873
  20
668.5
  0
VERTEX
  8
1_0
  10
873
  20
766.5
  0
VERTEX
  8
1_0
  10
775
  20
766.5
  0
VERTEX
  8
1_0
  10
775
  20
668.5
  0
SEQEND
  0
POLYLINE
  8
1_0
  70
1
  66
1
  0
VERTEX
  8
1_0
  10
-321
  20
1287
  0
VERTEX
  8
1_0
  10
-223
  20
1287
  0
VERTEX
  8
1_0
  10
-223
  20
1385
  0
VERTEX
  8
1_0
  10
-321
  20
1385
  0
VERTEX
  8
1_0
  10
-321
  20
1287
  0
SEQEND
  0
POLYLINE
  8
1_0
  70
1
  66
1
  0
VERTEX
  8
1_0
  10
-462
  20
261.5
  0
VERTEX
  8
1_0
  10
-364
  20
261.5
  0
VERTEX
  8
1_0
  10
-364
  20
359.5
  0
VERTEX
  8
1_0
  10
-462
  20
359.5
  0
VERTEX
  8
1_0
  10
-462
  20
261.5
  0
SEQEND
  0
POLYLINE
  8
1_0
  70
1
  66
1
  0
VERTEX
  8
1_0
  10
-262
  20
261.5
  0
VERTEX
  8
1_0
  10
-164
  20
261.5
  0
VERTEX
  8
1_0
  10
-164
  20
359.5
  0
VERTEX
  8
1_0
  10
-262
  20
359.5
  0
VERTEX
  8
1_0
  10
-262
  20
261.5
  0
SEQEND
  0
POLYLINE
  8
1_0
  70
1
  66
1
  0
VERTEX
  8
1_0
  10
79
  20
1287
  0
VERTEX
  8
1_0
  10
177
  20
1287
  0
VERTEX
  8
1_0
  10
177
  20
1385
  0
VERTEX
  8
1_0
  10
79
  20
1385
  0
VERTEX
  8
1_0
  10
79
  20
1287
  0
SEQEND
  0
POLYLINE
  8
1_0
  70
1
  66
1
  0
VERTEX
  8
1_0
  10
-62
  20
261.5
  0
VERTEX
  8
1_0
  10
36
  20
261.5
  0
VERTEX
  8
1_0
  10
36
  20
359.5
  0
VERTEX
  8
1_0
  10
-62
  20
359.5
  0
VERTEX
  8
1_0
  10
-62
  20
261.5
  0
SEQEND
  0
POLYLINE
  8
1_0
  70
1
  66
1
  0
VERTEX
  8
1_0
  10
-121
  20
1287
  0
VERTEX
  8
1_0
  10
-23
  20
1287
  0
VERTEX
  8
1_0
  10
-23
  20
1385
  0
VERTEX
  8
1_0
  10
-121
  20
1385
  0
VERTEX
  8
1_0
  10
-121
  20
1287
  0
SEQEND
  0
POLYLINE
  8
1_0
  70
1
  66
1
  0
VERTEX
  8
1_0
  10
138
  20
261.5
  0
VERTEX
  8
1_0
  10
236
  20
261.5
  0
VERTEX
  8
1_0
  10
236
  20
359.5
  0
VERTEX
  8
1_0
  10
138
  20
359.5
  0
VERTEX
  8
1_0
  10
138
  20
261.5
  0
SEQEND
  0
POLYLINE
  8
1_0
  70
1
  66
1
  0
VERTEX
  8
1_0
  10
338
  20
261.5
  0
VERTEX
  8
1_0
  10
436
  20
261.5
  0
VERTEX
  8
1_0
  10
436
  20
359.5
  0
VERTEX
  8
1_0
  10
338
  20
359.5
  0
VERTEX
  8
1_0
  10
338
  20
261.5
  0
SEQEND
  0
POLYLINE
  8
1_0
  70
1
  66
1
  0
VERTEX
  8
1_0
  10
279
  20
1287
  0
VERTEX
  8
1_0
  10
377
  20
1287
  0
VERTEX
  8
1_0
  10
377
  20
1385
  0
VERTEX
  8
1_0
  10
279
  20
1385
  0
VERTEX
  8
1_0
  10
279
  20
1287
  0
SEQEND
  0
POLYLINE
  8
1_0
  70
1
  66
1
  0
VERTEX
  8
1_0
  10
-721
  20
1287
  0
VERTEX
  8
1_0
  10
-623
  20
1287
  0
VERTEX
  8
1_0
  10
-623
  20
1385
  0
VERTEX
  8
1_0
  10
-721
  20
1385
  0
VERTEX
  8
1_0
  10
-721
  20
1287
  0
SEQEND
  0
POLYLINE
  8
1_0
  70
1
  66
1
  0
VERTEX
  8
1_0
  10
479
  20
1287
  0
VERTEX
  8
1_0
  10
577
  20
1287
  0
VERTEX
  8
1_0
  10
577
  20
1385
  0
VERTEX
  8
1_0
  10
479
  20
1385
  0
VERTEX
  8
1_0
  10
479
  20
1287
  0
SEQEND
  0
POLYLINE
  8
1_0
  70
1
  66
1
  0
VERTEX
  8
1_0
  10
-521
  20
1287
  0
VERTEX
  8
1_0
  10
-423
  20
1287
  0
VERTEX
  8
1_0
  10
-423
  20
1385
  0
VERTEX
  8
1_0
  10
-521
  20
1385
  0
VERTEX
  8
1_0
  10
-521
  20
1287
  0
SEQEND
  0
POLYLINE
  8
1_0
  70
1
  66
1
  0
VERTEX
  8
1_0
  10
-662
  20
261.5
  0
VERTEX
  8
1_0
  10
-564
  20
261.5
  0
VERTEX
  8
1_0
  10
-564
  20
359.5
  0
VERTEX
  8
1_0
  10
-662
  20
359.5
  0
VERTEX
  8
1_0
  10
-662
  20
261.5
  0
SEQEND
  0
POLYLINE
  8
1_0
  70
1
  66
1
  0
VERTEX
  8
1_0
  10
538
  20
261.5
  0
VERTEX
  8
1_0
  10
636
  20
261.5
  0
VERTEX
  8
1_0
  10
636
  20
359.5
  0
VERTEX
  8
1_0
  10
538
  20
359.5
  0
VERTEX
  8
1_0
  10
538
  20
261.5
  0
SEQEND
  0
POLYLINE
  8
1_0
  70
1
  66
1
  0
VERTEX
  8
1_0
  10
-777.5
  20
1280
  0
VERTEX
  8
1_0
  10
-724
  20
1280
  0
VERTEX
  8
1_0
  10
-724
  20
1407
  0
VERTEX
  8
1_0
  10
-777.5
  20
1407
  0
VERTEX
  8
1_0
  10
-777.5
  20
1280
  0
SEQEND
  0
POLYLINE
  8
1_0
  70
1
  66
1
  0
VERTEX
  8
1_0
  10
-973.5
  20
807.5
  0
VERTEX
  8
1_0
  10
-816
  20
807.5
  0
VERTEX
  8
1_0
  10
-816
  20
827.5
  0
VERTEX
  8
1_0
  10
-973.5
  20
827.5
  0
VERTEX
  8
1_0
  10
-973.5
  20
807.5
  0
SEQEND
  0
POLYLINE
  8
1_0
  70
1
  66
1
  0
VERTEX
  8
1_0
  10
643
  20
244
  0
VERTEX
  8
1_0
  10
698
  20
244
  0
VERTEX
  8
1_0
  10
698
  20
363.5
  0
VERTEX
  8
1_0
  10
643
  20
363.5
  0
VERTEX
  8
1_0
  10
643
  20
244
  0
SEQEND
  0
POLYLINE
  8
1_0
  70
1
  66
1
  0
VERTEX
  8
1_0
  10
-722
  20
259.5
  0
VERTEX
  8
1_0
  10
-670
  20
259.5
  0
VERTEX
  8
1_0
  10
-670
  20
378.5
  0
VERTEX
  8
1_0
  10
-722
  20
378.5
  0
VERTEX
  8
1_0
  10
-722
  20
259.5
  0
SEQEND
  0
POLYLINE
  8
1_0
  70
1
  66
1
  0
VERTEX
  8
1_0
  10
243.5
  20
246
  0
VERTEX
  8
1_0
  10
293.5
  20
246
  0
VERTEX
  8
1_0
  10
293.5
  20
365.5
  0
VERTEX
  8
1_0
  10
243.5
  20
365.5
  0
VERTEX
  8
1_0
  10
243.5
  20
246
  0
SEQEND
  0
POLYLINE
  8
1_0
  70
1
  66
1
  0
VERTEX
  8
1_0
  10
675
  20
1289.5
  0
VERTEX
  8
1_0
  10
727
  20
1289.5
  0
VERTEX
  8
1_0
  10
727
  20
1405.5
  0
VERTEX
  8
1_0
  10
675
  20
1405.5
  0
VERTEX
  8
1_0
  10
675
  20
1289.5
  0
SEQEND
  0
POLYLINE
  8
1_0
  70
1
  66
1
  0
VERTEX
  8
1_0
  10
-178.5
  20
1290.5
  0
VERTEX
  8
1_0
  10
-128
  20
1290.5
  0
VERTEX
  8
1_0
  10
-128
  20
1407.5
  0
VERTEX
  8
1_0
  10
-178.5
  20
1407.5
  0
VERTEX
  8
1_0
  10
-178.5
  20
1290.5
  0
SEQEND
  0
POLYLINE
  8
1_0
  70
1
  66
1
  0
VERTEX
  8
1_0
  10
-316.5
  20
253.5
  0
VERTEX
  8
1_0
  10
-270.5
  20
253.5
  0
VERTEX
  8
1_0
  10
-270.5
  20
373
  0
VERTEX
  8
1_0
  10
-316.5
  20
373
  0
VERTEX
  8
1_0
  10
-316.5
  20
253.5
  0
SEQEND
  0
POLYLINE
  8
1_0
  70
1
  66
1
  0
VERTEX
  8
1_0
  10
192.21
  20
1120.35
  0
VERTEX
  8
1_0
  10
273.21
  20
1120.35
  0
VERTEX
  8
1_0
  10
273.21
  20
1201.85
  0
VERTEX
  8
1_0
  10
192.21
  20
1201.85
  0
VERTEX
  8
1_0
  10
192.21
  20
1120.35
  0
SEQEND
  0
POLYLINE
  8
1_0
  70
1
  66
1
  0
VERTEX
  8
1_0
  10
356.6
  20
1189
  0
VERTEX
  8
1_0
  10
439.1
  20
1189
  0
VERTEX
  8
1_0
  10
439.1
  20
1266.5
  0
VERTEX
  8
1_0
  10
356.6
  20
1266.5
  0
VERTEX
  8
1_0
  10
356.6
  20
1189
  0
SEQEND
  0
POLYLINE
  8
1_0
  70
1
  66
1
  0
VERTEX
  8
1_0
  10
-587.5
  20
1114
  0
VERTEX
  8
1_0
  10
-506.5
  20
1114
  0
VERTEX
  8
1_0
  10
-506.5
  20
1192
  0
VERTEX
  8
1_0
  10
-587.5
  20
1192
  0
VERTEX
  8
1_0
  10
-587.5
  20
1114
  0
SEQEND
  0
POLYLINE
  8
1_0
  70
1
  66
1
  0
VERTEX
  8
1_0
  10
481.6
  20
367.5
  0
VERTEX
  8
1_0
  10
560.75
  20
367.5
  0
VERTEX
  8
1_0
  10
560.75
  20
447
  0
VERTEX
  8
1_0
  10
481.6
  20
447
  0
VERTEX
  8
1_0
  10
481.6
  20
367.5
  0
SEQEND
  0
POLYLINE
  8
1_0
  70
1
  66
1
  0
VERTEX
  8
1_0
  10
477.6
  20
1189
  0
VERTEX
  8
1_0
  10
556.75
  20
1189
  0
VERTEX
  8
1_0
  10
556.75
  20
1267.5
  0
VERTEX
  8
1_0
  10
477.6
  20
1267.5
  0
VERTEX
  8
1_0
  10
477.6
  20
1189
  0
SEQEND
  0
POLYLINE
  8
1_0
  70
1
  66
1
  0
VERTEX
  8
1_0
  10
338
  20
1276
  0
VERTEX
  8
1_0
  10
472.1
  20
1276
  0
VERTEX
  8
1_0
  10
472.1
  20
1296
  0
VERTEX
  8
1_0
  10
338
  20
1296
  0
VERTEX
  8
1_0
  10
338
  20
1276
  0
SEQEND
  0
POLYLINE
  8
1_0
  70
1
  66
1
  0
VERTEX
  8
1_0
  10
-159.19
  20
1145.5
  0
VERTEX
  8
1_0
  10
-138.19
  20
1145.5
  0
VERTEX
  8
1_0
  10
-138.19
  20
1271.5
  0
VERTEX
  8
1_0
  10
-159.19
  20
1271.5
  0
VERTEX
  8
1_0
  10
-159.19
  20
1145.5
  0
SEQEND
  0
POLYLINE
  8
1_0
  70
1
  66
1
  0
VERTEX
  8
1_0
  10
-203
  20
368
  0
VERTEX
  8
1_0
  10
-185
  20
368
  0
VERTEX
  8
1_0
  10
-185
  20
496.2
  0
VERTEX
  8
1_0
  10
-203
  20
496.2
  0
VERTEX
  8
1_0
  10
-203
  20
368
  0
SEQEND
  0
POLYLINE
  8
1_0
  70
1
  66
1
  0
VERTEX
  8
1_0
  10
-255
  20
1250
  0
VERTEX
  8
1_0
  10
-139
  20
1250
  0
VERTEX
  8
1_0
  10
-139
  20
1272.5
  0
VERTEX
  8
1_0
  10
-255
  20
1272.5
  0
VERTEX
  8
1_0
  10
-255
  20
1250
  0
SEQEND
  0
POLYLINE
  8
1_0
  70
1
  66
1
  0
VERTEX
  8
1_0
  10
315
  20
444.5
  0
VERTEX
  8
1_0
  10
388
  20
444.5
  0
VERTEX
  8
1_0
  10
388
  20
503
  0
VERTEX
  8
1_0
  10
315
  20
503
  0
VERTEX
  8
1_0
  10
315
  20
444.5
  0
SEQEND
  0
POLYLINE
  8
1_0
  70
1
  66
1
  0
VERTEX
  8
1_0
  10
2
  20
306
  0
VERTEX
  8
1_0
  10
23
  20
306
  0
VERTEX
  8
1_0
  10
23
  20
416
  0
VERTEX
  8
1_0
  10
2
  20
416
  0
VERTEX
  8
1_0
  10
2
  20
306
  0
SEQEND
  0
POLYLINE
  8
1_0
  70
1
  66
1
  0
VERTEX
  8
1_0
  10
773
  20
803.5
  0
VERTEX
  8
1_0
  10
875
  20
803.5
  0
VERTEX
  8
1_0
  10
875
  20
831.5
  0
VERTEX
  8
1_0
  10
773
  20
831.5
  0
VERTEX
  8
1_0
  10
773
  20
803.5
  0
SEQEND
  0
POLYLINE
  8
1_0
  70
1
  66
1
  0
VERTEX
  8
1_0
  10
774
  20
804.5
  0
VERTEX
  8
1_0
  10
874
  20
804.5
  0
VERTEX
  8
1_0
  10
874
  20
830.5
  0
VERTEX
  8
1_0
  10
774
  20
830.5
  0
VERTEX
  8
1_0
  10
774
  20
804.5
  0
SEQEND
  0
POLYLINE
  8
1_0
  70
1
  66
1
  0
VERTEX
  8
1_0
  10
-1073.5
  20
804.5
  0
VERTEX
  8
1_0
  10
-973.5
  20
804.5
  0
VERTEX
  8
1_0
  10
-973.5
  20
830.5
  0
VERTEX
  8
1_0
  10
-1073.5
  20
830.5
  0
VERTEX
  8
1_0
  10
-1073.5
  20
804.5
  0
SEQEND
  0
POLYLINE
  8
1_0
  70
1
  66
1
  0
VERTEX
  8
1_0
  10
774
  20
804.5
  0
VERTEX
  8
1_0
  10
874
  20
804.5
  0
VERTEX
  8
1_0
  10
874
  20
830.5
  0
VERTEX
  8
1_0
  10
774
  20
830.5
  0
VERTEX
  8
1_0
  10
774
  20
804.5
  0
SEQEND
  0
POLYLINE
  8
1_0
  70
1
  66
1
  0
VERTEX
  8
1_0
  10
-1073.5
  20
804.5
  0
VERTEX
  8
1_0
  10
-973.5
  20
804.5
  0
VERTEX
  8
1_0
  10
-973.5
  20
830.5
  0
VERTEX
  8
1_0
  10
-1073.5
  20
830.5
  0
VERTEX
  8
1_0
  10
-1073.5
  20
804.5
  0
SEQEND
  0
POLYLINE
  8
1_0
  70
1
  66
1
  0
VERTEX
  8
1_0
  10
-1072.5
  20
805.5
  0
VERTEX
  8
1_0
  10
-974.5
  20
805.5
  0
VERTEX
  8
1_0
  10
-974.5
  20
829.5
  0
VERTEX
  8
1_0
  10
-1072.5
  20
829.5
  0
VERTEX
  8
1_0
  10
-1072.5
  20
805.5
  0
SEQEND
  0
POLYLINE
  8
1_0
  70
1
  66
1
  0
VERTEX
  8
1_0
  10
775
  20
805.5
  0
VERTEX
  8
1_0
  10
873
  20
805.5
  0
VERTEX
  8
1_0
  10
873
  20
829.5
  0
VERTEX
  8
1_0
  10
775
  20
829.5
  0
VERTEX
  8
1_0
  10
775
  20
805.5
  0
SEQEND
  0
POLYLINE
  8
1_0
  70
1
  66
1
  0
VERTEX
  8
1_0
  10
-407.5
  20
314
  0
VERTEX
  8
1_0
  10
-363
  20
314
  0
VERTEX
  8
1_0
  10
-363
  20
391
  0
VERTEX
  8
1_0
  10
-407.5
  20
391
  0
VERTEX
  8
1_0
  10
-407.5
  20
314
  0
SEQEND
  0
POLYLINE
  8
1_0
  70
1
  66
1
  0
VERTEX
  8
1_0
  10
-493
  20
1129
  0
VERTEX
  8
1_0
  10
-472
  20
1129
  0
VERTEX
  8
1_0
  10
-472
  20
1218.5
  0
VERTEX
  8
1_0
  10
-493
  20
1218.5
  0
VERTEX
  8
1_0
  10
-493
  20
1129
  0
SEQEND
  0
POLYLINE
  8
1_0
  70
1
  66
1
  0
VERTEX
  8
1_0
  10
-255
  20
1250
  0
VERTEX
  8
1_0
  10
-224.5
  20
1250
  0
VERTEX
  8
1_0
  10
-224.5
  20
1330
  0
VERTEX
  8
1_0
  10
-255
  20
1330
  0
VERTEX
  8
1_0
  10
-255
  20
1250
  0
SEQEND
  0
POLYLINE
  8
1_0
  70
1
  66
1
  0
VERTEX
  8
1_0
  10
451
  20
342
  0
VERTEX
  8
1_0
  10
472
  20
342
  0
VERTEX
  8
1_0
  10
472
  20
429
  0
VERTEX
  8
1_0
  10
451
  20
429
  0
VERTEX
  8
1_0
  10
451
  20
342
  0
SEQEND
  0
POLYLINE
  8
1_0
  70
1
  66
1
  0
VERTEX
  8
1_0
  10
-447
  20
1261
  0
VERTEX
  8
1_0
  10
-422
  20
1261
  0
VERTEX
  8
1_0
  10
-422
  20
1334
  0
VERTEX
  8
1_0
  10
-447
  20
1334
  0
VERTEX
  8
1_0
  10
-447
  20
1261
  0
SEQEND
  0
POLYLINE
  8
1_0
  70
1
  66
1
  0
VERTEX
  8
1_0
  10
451.1
  20
1210
  0
VERTEX
  8
1_0
  10
472.1
  20
1210
  0
VERTEX
  8
1_0
  10
472.1
  20
1283
  0
VERTEX
  8
1_0
  10
451.1
  20
1283
  0
VERTEX
  8
1_0
  10
451.1
  20
1210
  0
SEQEND
  0
POLYLINE
  8
1_0
  70
1
  66
1
  0
VERTEX
  8
1_0
  10
-493
  20
1251
  0
VERTEX
  8
1_0
  10
-422
  20
1251
  0
VERTEX
  8
1_0
  10
-422
  20
1272.5
  0
VERTEX
  8
1_0
  10
-493
  20
1272.5
  0
VERTEX
  8
1_0
  10
-493
  20
1251
  0
SEQEND
  0
POLYLINE
  8
1_0
  70
1
  66
1
  0
VERTEX
  8
1_0
  10
408
  20
333
  0
VERTEX
  8
1_0
  10
472
  20
333
  0
VERTEX
  8
1_0
  10
472
  20
359.5
  0
VERTEX
  8
1_0
  10
408
  20
359.5
  0
VERTEX
  8
1_0
  10
408
  20
333
  0
SEQEND
  0
POLYLINE
  8
1_0
  70
1
  66
1
  0
VERTEX
  8
1_0
  10
534
  20
444.5
  0
VERTEX
  8
1_0
  10
562
  20
444.5
  0
VERTEX
  8
1_0
  10
562
  20
505
  0
VERTEX
  8
1_0
  10
534
  20
505
  0
VERTEX
  8
1_0
  10
534
  20
444.5
  0
SEQEND
  0
POLYLINE
  8
1_0
  70
1
  66
1
  0
VERTEX
  8
1_0
  10
-493
  20
1210
  0
VERTEX
  8
1_0
  10
-471.5
  20
1210
  0
VERTEX
  8
1_0
  10
-471.5
  20
1272.5
  0
VERTEX
  8
1_0
  10
-493
  20
1272.5
  0
VERTEX
  8
1_0
  10
-493
  20
1210
  0
SEQEND
  0
POLYLINE
  8
1_0
  70
1
  66
1
  0
VERTEX
  8
1_0
  10
451.5
  20
1174
  0
VERTEX
  8
1_0
  10
472
  20
1174
  0
VERTEX
  8
1_0
  10
472
  20
1231.5
  0
VERTEX
  8
1_0
  10
451.5
  20
1231.5
  0
VERTEX
  8
1_0
  10
451.5
  20
1174
  0
SEQEND
  0
POLYLINE
  8
1_0
  70
1
  66
1
  0
VERTEX
  8
1_0
  10
-709
  20
573.4
  0
VERTEX
  8
1_0
  10
-734.6
  20
573.4
  0
VERTEX
  8
1_0
  10
-723.93
  20
581.4
  0
VERTEX
  8
1_0
  10
-709
  20
592.6
  0
VERTEX
  8
1_0
  10
-709
  20
602.2
  0
VERTEX
  8
1_0
  10
-713.8
  20
607
  0
VERTEX
  8
1_0
  10
-736.2
  20
607
  0
VERTEX
  8
1_0
  10
-741
  20
602.2
  0
VERTEX
  8
1_0
  10
-741
  20
595
  0
VERTEX
  8
1_0
  10
-734.6
  20
595
  0
VERTEX
  8
1_0
  10
-734.6
  20
599
  0
VERTEX
  8
1_0
  10
-733
  20
600.6
  0
VERTEX
  8
1_0
  10
-717
  20
600.6
  0
VERTEX
  8
1_0
  10
-715.4
  20
599
  0
VERTEX
  8
1_0
  10
-715.4
  20
595.8
  0
VERTEX
  8
1_0
  10
-741
  20
576.6
  0
VERTEX
  8
1_0
  10
-741
  20
567
  0
VERTEX
  8
1_0
  10
-709
  20
567
  0
VERTEX
  8
1_0
  10
-709
  20
573.4
  0
SEQEND
  0
POLYLINE
  8
1_0
  70
1
  66
1
  0
VERTEX
  8
1_0
  10
480
  20
281
  0
VERTEX
  8
1_0
  10
480
  20
274.6
  0
VERTEX
  8
1_0
  10
500.8
  20
274.6
  0
VERTEX
  8
1_0
  10
510.4
  20
265
  0
VERTEX
  8
1_0
  10
500.8
  20
255.4
  0
VERTEX
  8
1_0
  10
480
  20
255.4
  0
VERTEX
  8
1_0
  10
480
  20
249
  0
VERTEX
  8
1_0
  10
504
  20
249
  0
VERTEX
  8
1_0
  10
520
  20
265
  0
VERTEX
  8
1_0
  10
504
  20
281
  0
VERTEX
  8
1_0
  10
480
  20
281
  0
SEQEND
  0
POLYLINE
  8
1_0
  70
1
  66
1
  0
VERTEX
  8
1_0
  10
496.8
  20
361
  0
VERTEX
  8
1_0
  10
496.8
  20
351.4
  0
VERTEX
  8
1_0
  10
480
  20
351.4
  0
VERTEX
  8
1_0
  10
480
  20
345
  0
VERTEX
  8
1_0
  10
496.8
  20
345
  0
VERTEX
  8
1_0
  10
496.8
  20
335.4
  0
VERTEX
  8
1_0
  10
480
  20
335.4
  0
VERTEX
  8
1_0
  10
480
  20
329
  0
VERTEX
  8
1_0
  10
503.2
  20
329
  0
VERTEX
  8
1_0
  10
503.2
  20
345
  0
VERTEX
  8
1_0
  10
520
  20
345
  0
VERTEX
  8
1_0
  10
520
  20
351.4
  0
VERTEX
  8
1_0
  10
503.2
  20
351.4
  0
VERTEX
  8
1_0
  10
503.2
  20
361
  0
VERTEX
  8
1_0
  10
496.8
  20
361
  0
SEQEND
  0
POLYLINE
  8
1_0
  70
1
  66
1
  0
VERTEX
  8
1_0
  10
83.6
  20
364
  0
VERTEX
  8
1_0
  10
83.6
  20
338.4
  0
VERTEX
  8
1_0
  10
75.6
  20
349.07
  0
VERTEX
  8
1_0
  10
64.4
  20
364
  0
VERTEX
  8
1_0
  10
54.8
  20
364
  0
VERTEX
  8
1_0
  10
50
  20
359.2
  0
VERTEX
  8
1_0
  10
50
  20
336.8
  0
VERTEX
  8
1_0
  10
54.8
  20
332
  0
VERTEX
  8
1_0
  10
62
  20
332
  0
VERTEX
  8
1_0
  10
62
  20
338.4
  0
VERTEX
  8
1_0
  10
58
  20
338.4
  0
VERTEX
  8
1_0
  10
56.4
  20
340
  0
VERTEX
  8
1_0
  10
56.4
  20
356
  0
VERTEX
  8
1_0
  10
58
  20
357.6
  0
VERTEX
  8
1_0
  10
61.2
  20
357.6
  0
VERTEX
  8
1_0
  10
80.4
  20
332
  0
VERTEX
  8
1_0
  10
90
  20
332
  0
VERTEX
  8
1_0
  10
90
  20
364
  0
VERTEX
  8
1_0
  10
83.6
  20
364
  0
SEQEND
  0
POLYLINE
  8
1_0
  70
1
  66
1
  0
VERTEX
  8
1_0
  10
50
  20
284
  0
VERTEX
  8
1_0
  10
50
  20
277.6
  0
VERTEX
  8
1_0
  10
70.8
  20
277.6
  0
VERTEX
  8
1_0
  10
80.4
  20
268
  0
VERTEX
  8
1_0
  10
70.8
  20
258.4
  0
VERTEX
  8
1_0
  10
50
  20
258.4
  0
VERTEX
  8
1_0
  10
50
  20
252
  0
VERTEX
  8
1_0
  10
74
  20
252
  0
VERTEX
  8
1_0
  10
90
  20
268
  0
VERTEX
  8
1_0
  10
74
  20
284
  0
VERTEX
  8
1_0
  10
50
  20
284
  0
SEQEND
  0
POLYLINE
  8
1_0
  70
1
  66
1
  0
VERTEX
  8
1_0
  10
-511
  20
296
  0
VERTEX
  8
1_0
  10
-511
  20
289.6
  0
VERTEX
  8
1_0
  10
-490.2
  20
289.6
  0
VERTEX
  8
1_0
  10
-480.6
  20
280
  0
VERTEX
  8
1_0
  10
-490.2
  20
270.4
  0
VERTEX
  8
1_0
  10
-511
  20
270.4
  0
VERTEX
  8
1_0
  10
-511
  20
264
  0
VERTEX
  8
1_0
  10
-487
  20
264
  0
VERTEX
  8
1_0
  10
-471
  20
280
  0
VERTEX
  8
1_0
  10
-487
  20
296
  0
VERTEX
  8
1_0
  10
-511
  20
296
  0
SEQEND
  0
POLYLINE
  8
1_0
  70
1
  66
1
  0
VERTEX
  8
1_0
  10
646
  20
321
  0
VERTEX
  8
1_0
  10
646
  20
314.6
  0
VERTEX
  8
1_0
  10
672.4
  20
314.6
  0
VERTEX
  8
1_0
  10
646
  20
293
  0
VERTEX
  8
1_0
  10
646
  20
289
  0
VERTEX
  8
1_0
  10
686
  20
289
  0
VERTEX
  8
1_0
  10
686
  20
295.4
  0
VERTEX
  8
1_0
  10
659.6
  20
295.4
  0
VERTEX
  8
1_0
  10
686
  20
317
  0
VERTEX
  8
1_0
  10
686
  20
321
  0
VERTEX
  8
1_0
  10
646
  20
321
  0
SEQEND
  0
POLYLINE
  8
1_0
  70
1
  66
1
  0
VERTEX
  8
1_0
  10
666
  20
281
  0
VERTEX
  8
1_0
  10
666
  20
271.4
  0
VERTEX
  8
1_0
  10
672.4
  20
271.4
  0
VERTEX
  8
1_0
  10
672.4
  20
275
  0
VERTEX
  8
1_0
  10
678
  20
275
  0
VERTEX
  8
1_0
  10
679.6
  20
273.4
  0
VERTEX
  8
1_0
  10
679.6
  20
257
  0
VERTEX
  8
1_0
  10
678
  20
255.4
  0
VERTEX
  8
1_0
  10
654
  20
255.4
  0
VERTEX
  8
1_0
  10
652.4
  20
257
  0
VERTEX
  8
1_0
  10
652.4
  20
273
  0
VERTEX
  8
1_0
  10
654
  20
274.6
  0
VERTEX
  8
1_0
  10
658
  20
274.6
  0
VERTEX
  8
1_0
  10
658
  20
281
  0
VERTEX
  8
1_0
  10
650.8
  20
281
  0
VERTEX
  8
1_0
  10
646
  20
276.2
  0
VERTEX
  8
1_0
  10
646
  20
253.8
  0
VERTEX
  8
1_0
  10
650.8
  20
249
  0
VERTEX
  8
1_0
  10
681.2
  20
249
  0
VERTEX
  8
1_0
  10
686
  20
253.8
  0
VERTEX
  8
1_0
  10
686
  20
276.2
  0
VERTEX
  8
1_0
  10
681.2
  20
281
  0
VERTEX
  8
1_0
  10
666
  20
281
  0
SEQEND
  0
POLYLINE
  8
1_0
  70
1
  66
1
  0
VERTEX
  8
1_0
  10
-314
  20
331
  0
VERTEX
  8
1_0
  10
-314
  20
324.6
  0
VERTEX
  8
1_0
  10
-287.6
  20
324.6
  0
VERTEX
  8
1_0
  10
-314
  20
303
  0
VERTEX
  8
1_0
  10
-314
  20
299
  0
VERTEX
  8
1_0
  10
-274
  20
299
  0
VERTEX
  8
1_0
  10
-274
  20
305.4
  0
VERTEX
  8
1_0
  10
-300.4
  20
305.4
  0
VERTEX
  8
1_0
  10
-274
  20
327
  0
VERTEX
  8
1_0
  10
-274
  20
331
  0
VERTEX
  8
1_0
  10
-314
  20
331
  0
SEQEND
  0
POLYLINE
  8
1_0
  70
1
  66
1
  0
VERTEX
  8
1_0
  10
-294
  20
291
  0
VERTEX
  8
1_0
  10
-294
  20
281.4
  0
VERTEX
  8
1_0
  10
-287.6
  20
281.4
  0
VERTEX
  8
1_0
  10
-287.6
  20
285
  0
VERTEX
  8
1_0
  10
-282
  20
285
  0
VERTEX
  8
1_0
  10
-280.4
  20
283.4
  0
VERTEX
  8
1_0
  10
-280.4
  20
267
  0
VERTEX
  8
1_0
  10
-282
  20
265.4
  0
VERTEX
  8
1_0
  10
-306
  20
265.4
  0
VERTEX
  8
1_0
  10
-307.6
  20
267
  0
VERTEX
  8
1_0
  10
-307.6
  20
283
  0
VERTEX
  8
1_0
  10
-306
  20
284.6
  0
VERTEX
  8
1_0
  10
-302
  20
284.6
  0
VERTEX
  8
1_0
  10
-302
  20
291
  0
VERTEX
  8
1_0
  10
-309.2
  20
291
  0
VERTEX
  8
1_0
  10
-314
  20
286.2
  0
VERTEX
  8
1_0
  10
-314
  20
263.8
  0
VERTEX
  8
1_0
  10
-309.2
  20
259
  0
VERTEX
  8
1_0
  10
-278.8
  20
259
  0
VERTEX
  8
1_0
  10
-274
  20
263.8
  0
VERTEX
  8
1_0
  10
-274
  20
286.2
  0
VERTEX
  8
1_0
  10
-278.8
  20
291
  0
VERTEX
  8
1_0
  10
-294
  20
291
  0
SEQEND
  0
POLYLINE
  8
1_0
  70
1
  66
1
  0
VERTEX
  8
1_0
  10
-714
  20
333
  0
VERTEX
  8
1_0
  10
-714
  20
326.6
  0
VERTEX
  8
1_0
  10
-687.6
  20
326.6
  0
VERTEX
  8
1_0
  10
-714
  20
305
  0
VERTEX
  8
1_0
  10
-714
  20
301
  0
VERTEX
  8
1_0
  10
-674
  20
301
  0
VERTEX
  8
1_0
  10
-674
  20
307.4
  0
VERTEX
  8
1_0
  10
-700.4
  20
307.4
  0
VERTEX
  8
1_0
  10
-674
  20
329
  0
VERTEX
  8
1_0
  10
-674
  20
333
  0
VERTEX
  8
1_0
  10
-714
  20
333
  0
SEQEND
  0
POLYLINE
  8
1_0
  70
1
  66
1
  0
VERTEX
  8
1_0
  10
-694
  20
293
  0
VERTEX
  8
1_0
  10
-694
  20
283.4
  0
VERTEX
  8
1_0
  10
-687.6
  20
283.4
  0
VERTEX
  8
1_0
  10
-687.6
  20
287
  0
VERTEX
  8
1_0
  10
-682
  20
287
  0
VERTEX
  8
1_0
  10
-680.4
  20
285.4
  0
VERTEX
  8
1_0
  10
-680.4
  20
269
  0
VERTEX
  8
1_0
  10
-682
  20
267.4
  0
VERTEX
  8
1_0
  10
-706
  20
267.4
  0
VERTEX
  8
1_0
  10
-707.6
  20
269
  0
VERTEX
  8
1_0
  10
-707.6
  20
285
  0
VERTEX
  8
1_0
  10
-706
  20
286.6
  0
VERTEX
  8
1_0
  10
-702
  20
286.6
  0
VERTEX
  8
1_0
  10
-702
  20
293
  0
VERTEX
  8
1_0
  10
-709.2
  20
293
  0
VERTEX
  8
1_0
  10
-714
  20
288.2
  0
VERTEX
  8
1_0
  10
-714
  20
265.8
  0
VERTEX
  8
1_0
  10
-709.2
  20
261
  0
VERTEX
  8
1_0
  10
-678.8
  20
261
  0
VERTEX
  8
1_0
  10
-674
  20
265.8
  0
VERTEX
  8
1_0
  10
-674
  20
288.2
  0
VERTEX
  8
1_0
  10
-678.8
  20
293
  0
VERTEX
  8
1_0
  10
-694
  20
293
  0
SEQEND
  0
POLYLINE
  8
1_0
  70
1
  66
1
  0
VERTEX
  8
1_0
  10
-173
  20
1365
  0
VERTEX
  8
1_0
  10
-173
  20
1358.6
  0
VERTEX
  8
1_0
  10
-146.6
  20
1358.6
  0
VERTEX
  8
1_0
  10
-173
  20
1337
  0
VERTEX
  8
1_0
  10
-173
  20
1333
  0
VERTEX
  8
1_0
  10
-133
  20
1333
  0
VERTEX
  8
1_0
  10
-133
  20
1339.4
  0
VERTEX
  8
1_0
  10
-159.4
  20
1339.4
  0
VERTEX
  8
1_0
  10
-133
  20
1361
  0
VERTEX
  8
1_0
  10
-133
  20
1365
  0
VERTEX
  8
1_0
  10
-173
  20
1365
  0
SEQEND
  0
POLYLINE
  8
1_0
  70
1
  66
1
  0
VERTEX
  8
1_0
  10
-153
  20
1325
  0
VERTEX
  8
1_0
  10
-153
  20
1315.4
  0
VERTEX
  8
1_0
  10
-146.6
  20
1315.4
  0
VERTEX
  8
1_0
  10
-146.6
  20
1319
  0
VERTEX
  8
1_0
  10
-141
  20
1319
  0
VERTEX
  8
1_0
  10
-139.4
  20
1317.4
  0
VERTEX
  8
1_0
  10
-139.4
  20
1301
  0
VERTEX
  8
1_0
  10
-141
  20
1299.4
  0
VERTEX
  8
1_0
  10
-165
  20
1299.4
  0
VERTEX
  8
1_0
  10
-166.6
  20
1301
  0
VERTEX
  8
1_0
  10
-166.6
  20
1317
  0
VERTEX
  8
1_0
  10
-165
  20
1318.6
  0
VERTEX
  8
1_0
  10
-161
  20
1318.6
  0
VERTEX
  8
1_0
  10
-161
  20
1325
  0
VERTEX
  8
1_0
  10
-168.2
  20
1325
  0
VERTEX
  8
1_0
  10
-173
  20
1320.2
  0
VERTEX
  8
1_0
  10
-173
  20
1297.8
  0
VERTEX
  8
1_0
  10
-168.2
  20
1293
  0
VERTEX
  8
1_0
  10
-137.8
  20
1293
  0
VERTEX
  8
1_0
  10
-133
  20
1297.8
  0
VERTEX
  8
1_0
  10
-133
  20
1320.2
  0
VERTEX
  8
1_0
  10
-137.8
  20
1325
  0
VERTEX
  8
1_0
  10
-153
  20
1325
  0
SEQEND
  0
POLYLINE
  8
1_0
  70
1
  66
1
  0
VERTEX
  8
1_0
  10
700
  20
1323
  0
VERTEX
  8
1_0
  10
700
  20
1313.4
  0
VERTEX
  8
1_0
  10
706.4
  20
1313.4
  0
VERTEX
  8
1_0
  10
706.4
  20
1317
  0
VERTEX
  8
1_0
  10
712
  20
1317
  0
VERTEX
  8
1_0
  10
713.6
  20
1315.4
  0
VERTEX
  8
1_0
  10
713.6
  20
1299
  0
VERTEX
  8
1_0
  10
712
  20
1297.4
  0
VERTEX
  8
1_0
  10
688
  20
1297.4
  0
VERTEX
  8
1_0
  10
686.4
  20
1299
  0
VERTEX
  8
1_0
  10
686.4
  20
1315
  0
VERTEX
  8
1_0
  10
688
  20
1316.6
  0
VERTEX
  8
1_0
  10
692
  20
1316.6
  0
VERTEX
  8
1_0
  10
692
  20
1323
  0
VERTEX
  8
1_0
  10
684.8
  20
1323
  0
VERTEX
  8
1_0
  10
680
  20
1318.2
  0
VERTEX
  8
1_0
  10
680
  20
1295.8
  0
VERTEX
  8
1_0
  10
684.8
  20
1291
  0
VERTEX
  8
1_0
  10
715.2
  20
1291
  0
VERTEX
  8
1_0
  10
720
  20
1295.8
  0
VERTEX
  8
1_0
  10
720
  20
1318.2
  0
VERTEX
  8
1_0
  10
715.2
  20
1323
  0
VERTEX
  8
1_0
  10
700
  20
1323
  0
SEQEND
  0
POLYLINE
  8
1_0
  70
1
  66
1
  0
VERTEX
  8
1_0
  10
680
  20
1363
  0
VERTEX
  8
1_0
  10
680
  20
1356.6
  0
VERTEX
  8
1_0
  10
706.4
  20
1356.6
  0
VERTEX
  8
1_0
  10
680
  20
1335
  0
VERTEX
  8
1_0
  10
680
  20
1331
  0
VERTEX
  8
1_0
  10
720
  20
1331
  0
VERTEX
  8
1_0
  10
720
  20
1337.4
  0
VERTEX
  8
1_0
  10
693.6
  20
1337.4
  0
VERTEX
  8
1_0
  10
720
  20
1359
  0
VERTEX
  8
1_0
  10
720
  20
1363
  0
VERTEX
  8
1_0
  10
680
  20
1363
  0
SEQEND
  0
POLYLINE
  8
1_0
  70
1
  66
1
  0
VERTEX
  8
1_0
  10
386
  20
1328
  0
VERTEX
  8
1_0
  10
386
  20
1321.6
  0
VERTEX
  8
1_0
  10
406.8
  20
1321.6
  0
VERTEX
  8
1_0
  10
416.4
  20
1312
  0
VERTEX
  8
1_0
  10
406.8
  20
1302.4
  0
VERTEX
  8
1_0
  10
386
  20
1302.4
  0
VERTEX
  8
1_0
  10
386
  20
1296
  0
VERTEX
  8
1_0
  10
410
  20
1296
  0
VERTEX
  8
1_0
  10
426
  20
1312
  0
VERTEX
  8
1_0
  10
410
  20
1328
  0
VERTEX
  8
1_0
  10
386
  20
1328
  0
SEQEND
  0
POLYLINE
  8
1_0
  70
1
  66
1
  0
VERTEX
  8
1_0
  10
408.4
  20
1406
  0
VERTEX
  8
1_0
  10
406
  20
1403.6
  0
VERTEX
  8
1_0
  10
403.6
  20
1406
  0
VERTEX
  8
1_0
  10
390.8
  20
1406
  0
VERTEX
  8
1_0
  10
386
  20
1401.2
  0
VERTEX
  8
1_0
  10
386
  20
1378.8
  0
VERTEX
  8
1_0
  10
390.8
  20
1374
  0
VERTEX
  8
1_0
  10
398
  20
1374
  0
VERTEX
  8
1_0
  10
398
  20
1380.4
  0
VERTEX
  8
1_0
  10
394
  20
1380.4
  0
VERTEX
  8
1_0
  10
392.4
  20
1382
  0
VERTEX
  8
1_0
  10
392.4
  20
1398
  0
VERTEX
  8
1_0
  10
394
  20
1399.6
  0
VERTEX
  8
1_0
  10
401.2
  20
1399.6
  0
VERTEX
  8
1_0
  10
402.8
  20
1398
  0
VERTEX
  8
1_0
  10
402.8
  20
1384.4
  0
VERTEX
  8
1_0
  10
409.2
  20
1384.4
  0
VERTEX
  8
1_0
  10
409.2
  20
1398
  0
VERTEX
  8
1_0
  10
410.8
  20
1399.6
  0
VERTEX
  8
1_0
  10
418
  20
1399.6
  0
VERTEX
  8
1_0
  10
419.6
  20
1398
  0
VERTEX
  8
1_0
  10
419.6
  20
1382
  0
VERTEX
  8
1_0
  10
418
  20
1380.4
  0
VERTEX
  8
1_0
  10
414
  20
1380.4
  0
VERTEX
  8
1_0
  10
414
  20
1374
  0
VERTEX
  8
1_0
  10
421.2
  20
1374
  0
VERTEX
  8
1_0
  10
426
  20
1378.8
  0
VERTEX
  8
1_0
  10
426
  20
1401.2
  0
VERTEX
  8
1_0
  10
421.2
  20
1406
  0
VERTEX
  8
1_0
  10
408.4
  20
1406
  0
SEQEND
  0
POLYLINE
  8
1_0
  70
1
  66
1
  0
VERTEX
  8
1_0
  10
211
  20
1363
  0
VERTEX
  8
1_0
  10
211
  20
1353.4
  0
VERTEX
  8
1_0
  10
217.4
  20
1353.4
  0
VERTEX
  8
1_0
  10
217.4
  20
1357
  0
VERTEX
  8
1_0
  10
223
  20
1357
  0
VERTEX
  8
1_0
  10
224.6
  20
1355.4
  0
VERTEX
  8
1_0
  10
224.6
  20
1339
  0
VERTEX
  8
1_0
  10
223
  20
1337.4
  0
VERTEX
  8
1_0
  10
199
  20
1337.4
  0
VERTEX
  8
1_0
  10
197.4
  20
1339
  0
VERTEX
  8
1_0
  10
197.4
  20
1355
  0
VERTEX
  8
1_0
  10
199
  20
1356.6
  0
VERTEX
  8
1_0
  10
203
  20
1356.6
  0
VERTEX
  8
1_0
  10
203
  20
1363
  0
VERTEX
  8
1_0
  10
195.8
  20
1363
  0
VERTEX
  8
1_0
  10
191
  20
1358.2
  0
VERTEX
  8
1_0
  10
191
  20
1335.8
  0
VERTEX
  8
1_0
  10
195.8
  20
1331
  0
VERTEX
  8
1_0
  10
226.2
  20
1331
  0
VERTEX
  8
1_0
  10
231
  20
1335.8
  0
VERTEX
  8
1_0
  10
231
  20
1358.2
  0
VERTEX
  8
1_0
  10
226.2
  20
1363
  0
VERTEX
  8
1_0
  10
211
  20
1363
  0
SEQEND
  0
POLYLINE
  8
1_0
  70
1
  66
1
  0
VERTEX
  8
1_0
  10
213.4
  20
1403
  0
VERTEX
  8
1_0
  10
211
  20
1400.6
  0
VERTEX
  8
1_0
  10
208.6
  20
1403
  0
VERTEX
  8
1_0
  10
195.8
  20
1403
  0
VERTEX
  8
1_0
  10
191
  20
1398.2
  0
VERTEX
  8
1_0
  10
191
  20
1375.8
  0
VERTEX
  8
1_0
  10
195.8
  20
1371
  0
VERTEX
  8
1_0
  10
203
  20
1371
  0
VERTEX
  8
1_0
  10
203
  20
1377.4
  0
VERTEX
  8
1_0
  10
199
  20
1377.4
  0
VERTEX
  8
1_0
  10
197.4
  20
1379
  0
VERTEX
  8
1_0
  10
197.4
  20
1395
  0
VERTEX
  8
1_0
  10
199
  20
1396.6
  0
VERTEX
  8
1_0
  10
206.2
  20
1396.6
  0
VERTEX
  8
1_0
  10
207.8
  20
1395
  0
VERTEX
  8
1_0
  10
207.8
  20
1381.4
  0
VERTEX
  8
1_0
  10
214.2
  20
1381.4
  0
VERTEX
  8
1_0
  10
214.2
  20
1395
  0
VERTEX
  8
1_0
  10
215.8
  20
1396.6
  0
VERTEX
  8
1_0
  10
223
  20
1396.6
  0
VERTEX
  8
1_0
  10
224.6
  20
1395
  0
VERTEX
  8
1_0
  10
224.6
  20
1379
  0
VERTEX
  8
1_0
  10
223
  20
1377.4
  0
VERTEX
  8
1_0
  10
219
  20
1377.4
  0
VERTEX
  8
1_0
  10
219
  20
1371
  0
VERTEX
  8
1_0
  10
226.2
  20
1371
  0
VERTEX
  8
1_0
  10
231
  20
1375.8
  0
VERTEX
  8
1_0
  10
231
  20
1398.2
  0
VERTEX
  8
1_0
  10
226.2
  20
1403
  0
VERTEX
  8
1_0
  10
213.4
  20
1403
  0
SEQEND
  0
POLYLINE
  8
1_0
  70
1
  66
1
  0
VERTEX
  8
1_0
  10
191
  20
1323
  0
VERTEX
  8
1_0
  10
191
  20
1316.6
  0
VERTEX
  8
1_0
  10
211.8
  20
1316.6
  0
VERTEX
  8
1_0
  10
221.4
  20
1307
  0
VERTEX
  8
1_0
  10
211.8
  20
1297.4
  0
VERTEX
  8
1_0
  10
191
  20
1297.4
  0
VERTEX
  8
1_0
  10
191
  20
1291
  0
VERTEX
  8
1_0
  10
215
  20
1291
  0
VERTEX
  8
1_0
  10
231
  20
1307
  0
VERTEX
  8
1_0
  10
215
  20
1323
  0
VERTEX
  8
1_0
  10
191
  20
1323
  0
SEQEND
  0
POLYLINE
  8
1_0
  70
1
  66
1
  0
VERTEX
  8
1_0
  10
-368
  20
1324
  0
VERTEX
  8
1_0
  10
-368
  20
1317.6
  0
VERTEX
  8
1_0
  10
-347.2
  20
1317.6
  0
VERTEX
  8
1_0
  10
-337.6
  20
1308
  0
VERTEX
  8
1_0
  10
-347.2
  20
1298.4
  0
VERTEX
  8
1_0
  10
-368
  20
1298.4
  0
VERTEX
  8
1_0
  10
-368
  20
1292
  0
VERTEX
  8
1_0
  10
-344
  20
1292
  0
VERTEX
  8
1_0
  10
-328
  20
1308
  0
VERTEX
  8
1_0
  10
-344
  20
1324
  0
VERTEX
  8
1_0
  10
-368
  20
1324
  0
SEQEND
  0
POLYLINE
  8
1_0
  70
1
  66
1
  0
VERTEX
  8
1_0
  10
-348
  20
1364
  0
VERTEX
  8
1_0
  10
-348
  20
1354.4
  0
VERTEX
  8
1_0
  10
-341.6
  20
1354.4
  0
VERTEX
  8
1_0
  10
-341.6
  20
1358
  0
VERTEX
  8
1_0
  10
-336
  20
1358
  0
VERTEX
  8
1_0
  10
-334.4
  20
1356.4
  0
VERTEX
  8
1_0
  10
-334.4
  20
1340
  0
VERTEX
  8
1_0
  10
-336
  20
1338.4
  0
VERTEX
  8
1_0
  10
-360
  20
1338.4
  0
VERTEX
  8
1_0
  10
-361.6
  20
1340
  0
VERTEX
  8
1_0
  10
-361.6
  20
1356
  0
VERTEX
  8
1_0
  10
-360
  20
1357.6
  0
VERTEX
  8
1_0
  10
-356
  20
1357.6
  0
VERTEX
  8
1_0
  10
-356
  20
1364
  0
VERTEX
  8
1_0
  10
-363.2
  20
1364
  0
VERTEX
  8
1_0
  10
-368
  20
1359.2
  0
VERTEX
  8
1_0
  10
-368
  20
1336.8
  0
VERTEX
  8
1_0
  10
-363.2
  20
1332
  0
VERTEX
  8
1_0
  10
-332.8
  20
1332
  0
VERTEX
  8
1_0
  10
-328
  20
1336.8
  0
VERTEX
  8
1_0
  10
-328
  20
1359.2
  0
VERTEX
  8
1_0
  10
-332.8
  20
1364
  0
VERTEX
  8
1_0
  10
-348
  20
1364
  0
SEQEND
  0
POLYLINE
  8
1_0
  70
1
  66
1
  0
VERTEX
  8
1_0
  10
-334.4
  20
1404
  0
VERTEX
  8
1_0
  10
-334.4
  20
1378.4
  0
VERTEX
  8
1_0
  10
-342.4
  20
1389.07
  0
VERTEX
  8
1_0
  10
-353.6
  20
1404
  0
VERTEX
  8
1_0
  10
-363.2
  20
1404
  0
VERTEX
  8
1_0
  10
-368
  20
1399.2
  0
VERTEX
  8
1_0
  10
-368
  20
1376.8
  0
VERTEX
  8
1_0
  10
-363.2
  20
1372
  0
VERTEX
  8
1_0
  10
-356
  20
1372
  0
VERTEX
  8
1_0
  10
-356
  20
1378.4
  0
VERTEX
  8
1_0
  10
-360
  20
1378.4
  0
VERTEX
  8
1_0
  10
-361.6
  20
1380
  0
VERTEX
  8
1_0
  10
-361.6
  20
1396
  0
VERTEX
  8
1_0
  10
-360
  20
1397.6
  0
VERTEX
  8
1_0
  10
-356.8
  20
1397.6
  0
VERTEX
  8
1_0
  10
-337.6
  20
1372
  0
VERTEX
  8
1_0
  10
-328
  20
1372
  0
VERTEX
  8
1_0
  10
-328
  20
1404
  0
VERTEX
  8
1_0
  10
-334.4
  20
1404
  0
SEQEND
  0
POLYLINE
  8
1_0
  70
1
  66
1
  0
VERTEX
  8
1_0
  10
-570
  20
1331
  0
VERTEX
  8
1_0
  10
-570
  20
1324.6
  0
VERTEX
  8
1_0
  10
-549.2
  20
1324.6
  0
VERTEX
  8
1_0
  10
-539.6
  20
1315
  0
VERTEX
  8
1_0
  10
-549.2
  20
1305.4
  0
VERTEX
  8
1_0
  10
-570
  20
1305.4
  0
VERTEX
  8
1_0
  10
-570
  20
1299
  0
VERTEX
  8
1_0
  10
-546
  20
1299
  0
VERTEX
  8
1_0
  10
-530
  20
1315
  0
VERTEX
  8
1_0
  10
-546
  20
1331
  0
VERTEX
  8
1_0
  10
-570
  20
1331
  0
SEQEND
  0
POLYLINE
  8
1_0
  70
1
  66
1
  0
VERTEX
  8
1_0
  10
-550
  20
1371
  0
VERTEX
  8
1_0
  10
-550
  20
1361.4
  0
VERTEX
  8
1_0
  10
-543.6
  20
1361.4
  0
VERTEX
  8
1_0
  10
-543.6
  20
1365
  0
VERTEX
  8
1_0
  10
-538
  20
1365
  0
VERTEX
  8
1_0
  10
-536.4
  20
1363.4
  0
VERTEX
  8
1_0
  10
-536.4
  20
1347
  0
VERTEX
  8
1_0
  10
-538
  20
1345.4
  0
VERTEX
  8
1_0
  10
-562
  20
1345.4
  0
VERTEX
  8
1_0
  10
-563.6
  20
1347
  0
VERTEX
  8
1_0
  10
-563.6
  20
1363
  0
VERTEX
  8
1_0
  10
-562
  20
1364.6
  0
VERTEX
  8
1_0
  10
-558
  20
1364.6
  0
VERTEX
  8
1_0
  10
-558
  20
1371
  0
VERTEX
  8
1_0
  10
-565.2
  20
1371
  0
VERTEX
  8
1_0
  10
-570
  20
1366.2
  0
VERTEX
  8
1_0
  10
-570
  20
1343.8
  0
VERTEX
  8
1_0
  10
-565.2
  20
1339
  0
VERTEX
  8
1_0
  10
-534.8
  20
1339
  0
VERTEX
  8
1_0
  10
-530
  20
1343.8
  0
VERTEX
  8
1_0
  10
-530
  20
1366.2
  0
VERTEX
  8
1_0
  10
-534.8
  20
1371
  0
VERTEX
  8
1_0
  10
-550
  20
1371
  0
SEQEND
  0
POLYLINE
  8
1_0
  70
1
  66
1
  0
VERTEX
  8
1_0
  10
-748
  20
1323
  0
VERTEX
  8
1_0
  10
-748
  20
1313.4
  0
VERTEX
  8
1_0
  10
-741.6
  20
1313.4
  0
VERTEX
  8
1_0
  10
-741.6
  20
1317
  0
VERTEX
  8
1_0
  10
-736
  20
1317
  0
VERTEX
  8
1_0
  10
-734.4
  20
1315.4
  0
VERTEX
  8
1_0
  10
-734.4
  20
1299
  0
VERTEX
  8
1_0
  10
-736
  20
1297.4
  0
VERTEX
  8
1_0
  10
-760
  20
1297.4
  0
VERTEX
  8
1_0
  10
-761.6
  20
1299
  0
VERTEX
  8
1_0
  10
-761.6
  20
1315
  0
VERTEX
  8
1_0
  10
-760
  20
1316.6
  0
VERTEX
  8
1_0
  10
-756
  20
1316.6
  0
VERTEX
  8
1_0
  10
-756
  20
1323
  0
VERTEX
  8
1_0
  10
-763.2
  20
1323
  0
VERTEX
  8
1_0
  10
-768
  20
1318.2
  0
VERTEX
  8
1_0
  10
-768
  20
1295.8
  0
VERTEX
  8
1_0
  10
-763.2
  20
1291
  0
VERTEX
  8
1_0
  10
-732.8
  20
1291
  0
VERTEX
  8
1_0
  10
-728
  20
1295.8
  0
VERTEX
  8
1_0
  10
-728
  20
1318.2
  0
VERTEX
  8
1_0
  10
-732.8
  20
1323
  0
VERTEX
  8
1_0
  10
-748
  20
1323
  0
SEQEND
  0
POLYLINE
  8
1_0
  70
1
  66
1
  0
VERTEX
  8
1_0
  10
-768
  20
1363
  0
VERTEX
  8
1_0
  10
-768
  20
1356.6
  0
VERTEX
  8
1_0
  10
-741.6
  20
1356.6
  0
VERTEX
  8
1_0
  10
-768
  20
1335
  0
VERTEX
  8
1_0
  10
-768
  20
1331
  0
VERTEX
  8
1_0
  10
-728
  20
1331
  0
VERTEX
  8
1_0
  10
-728
  20
1337.4
  0
VERTEX
  8
1_0
  10
-754.4
  20
1337.4
  0
VERTEX
  8
1_0
  10
-728
  20
1359
  0
VERTEX
  8
1_0
  10
-728
  20
1363
  0
VERTEX
  8
1_0
  10
-768
  20
1363
  0
SEQEND
  0
POLYLINE
  8
1_0
  70
1
  66
1
  0
VERTEX
  8
1_0
  10
-829
  20
584.6
  0
VERTEX
  8
1_0
  10
-834.6
  20
590.2
  0
VERTEX
  8
1_0
  10
-853
  20
590.2
  0
VERTEX
  8
1_0
  10
-854.6
  20
591.8
  0
VERTEX
  8
1_0
  10
-854.6
  20
599
  0
VERTEX
  8
1_0
  10
-853
  20
600.6
  0
VERTEX
  8
1_0
  10
-837
  20
600.6
  0
VERTEX
  8
1_0
  10
-835.4
  20
599
  0
VERTEX
  8
1_0
  10
-835.4
  20
596.6
  0
VERTEX
  8
1_0
  10
-829
  20
596.6
  0
VERTEX
  8
1_0
  10
-829
  20
602.2
  0
VERTEX
  8
1_0
  10
-833.8
  20
607
  0
VERTEX
  8
1_0
  10
-856.2
  20
607
  0
VERTEX
  8
1_0
  10
-861
  20
602.2
  0
VERTEX
  8
1_0
  10
-861
  20
589.4
  0
VERTEX
  8
1_0
  10
-855.4
  20
583.8
  0
VERTEX
  8
1_0
  10
-837
  20
583.8
  0
VERTEX
  8
1_0
  10
-835.4
  20
582.2
  0
VERTEX
  8
1_0
  10
-835.4
  20
575
  0
VERTEX
  8
1_0
  10
-837
  20
573.4
  0
VERTEX
  8
1_0
  10
-853
  20
573.4
  0
VERTEX
  8
1_0
  10
-854.6
  20
575
  0
VERTEX
  8
1_0
  10
-854.6
  20
577.4
  0
VERTEX
  8
1_0
  10
-861
  20
577.4
  0
VERTEX
  8
1_0
  10
-861
  20
571.8
  0
VERTEX
  8
1_0
  10
-856.2
  20
567
  0
VERTEX
  8
1_0
  10
-833.8
  20
567
  0
VERTEX
  8
1_0
  10
-829
  20
571.8
  0
VERTEX
  8
1_0
  10
-829
  20
584.6
  0
SEQEND
  0
POLYLINE
  8
1_0
  70
1
  66
1
  0
VERTEX
  8
1_0
  10
-869
  20
573.4
  0
VERTEX
  8
1_0
  10
-894.6
  20
573.4
  0
VERTEX
  8
1_0
  10
-894.6
  20
607
  0
VERTEX
  8
1_0
  10
-901
  20
607
  0
VERTEX
  8
1_0
  10
-901
  20
567
  0
VERTEX
  8
1_0
  10
-869
  20
567
  0
VERTEX
  8
1_0
  10
-869
  20
573.4
  0
SEQEND
  0
POLYLINE
  8
1_0
  70
1
  66
1
  0
VERTEX
  8
1_0
  10
248
  20
322
  0
VERTEX
  8
1_0
  10
248
  20
315.6
  0
VERTEX
  8
1_0
  10
274.4
  20
315.6
  0
VERTEX
  8
1_0
  10
248
  20
294
  0
VERTEX
  8
1_0
  10
248
  20
290
  0
VERTEX
  8
1_0
  10
288
  20
290
  0
VERTEX
  8
1_0
  10
288
  20
296.4
  0
VERTEX
  8
1_0
  10
261.6
  20
296.4
  0
VERTEX
  8
1_0
  10
288
  20
318
  0
VERTEX
  8
1_0
  10
288
  20
322
  0
VERTEX
  8
1_0
  10
248
  20
322
  0
SEQEND
  0
POLYLINE
  8
1_0
  70
1
  66
1
  0
VERTEX
  8
1_0
  10
268
  20
282
  0
VERTEX
  8
1_0
  10
268
  20
272.4
  0
VERTEX
  8
1_0
  10
274.4
  20
272.4
  0
VERTEX
  8
1_0
  10
274.4
  20
276
  0
VERTEX
  8
1_0
  10
280
  20
276
  0
VERTEX
  8
1_0
  10
281.6
  20
274.4
  0
VERTEX
  8
1_0
  10
281.6
  20
258
  0
VERTEX
  8
1_0
  10
280
  20
256.4
  0
VERTEX
  8
1_0
  10
256
  20
256.4
  0
VERTEX
  8
1_0
  10
254.4
  20
258
  0
VERTEX
  8
1_0
  10
254.4
  20
274
  0
VERTEX
  8
1_0
  10
256
  20
275.6
  0
VERTEX
  8
1_0
  10
260
  20
275.6
  0
VERTEX
  8
1_0
  10
260
  20
282
  0
VERTEX
  8
1_0
  10
252.8
  20
282
  0
VERTEX
  8
1_0
  10
248
  20
277.2
  0
VERTEX
  8
1_0
  10
248
  20
254.8
  0
VERTEX
  8
1_0
  10
252.8
  20
250
  0
VERTEX
  8
1_0
  10
283.2
  20
250
  0
VERTEX
  8
1_0
  10
288
  20
254.8
  0
VERTEX
  8
1_0
  10
288
  20
277.2
  0
VERTEX
  8
1_0
  10
283.2
  20
282
  0
VERTEX
  8
1_0
  10
268
  20
282
  0
SEQEND
  0
POLYLINE
  8
1_0
  70
1
  66
1
  0
VERTEX
  8
1_0
  10
-477.4
  20
368
  0
VERTEX
  8
1_0
  10
-477.4
  20
359.2
  0
VERTEX
  8
1_0
  10
-511
  20
359.2
  0
VERTEX
  8
1_0
  10
-511
  20
350.4
  0
VERTEX
  8
1_0
  10
-504.6
  20
350.4
  0
VERTEX
  8
1_0
  10
-504.6
  20
352.8
  0
VERTEX
  8
1_0
  10
-477.4
  20
352.8
  0
VERTEX
  8
1_0
  10
-477.4
  20
344
  0
VERTEX
  8
1_0
  10
-471
  20
344
  0
VERTEX
  8
1_0
  10
-471
  20
368
  0
VERTEX
  8
1_0
  10
-477.4
  20
368
  0
SEQEND
  0
POLYLINE
  8
1_0
  70
1
  66
1
  0
VERTEX
  8
1_0
  10
-536.4
  20
1403
  0
VERTEX
  8
1_0
  10
-536.4
  20
1394.2
  0
VERTEX
  8
1_0
  10
-570
  20
1394.2
  0
VERTEX
  8
1_0
  10
-570
  20
1385.4
  0
VERTEX
  8
1_0
  10
-563.6
  20
1385.4
  0
VERTEX
  8
1_0
  10
-563.6
  20
1387.8
  0
VERTEX
  8
1_0
  10
-536.4
  20
1387.8
  0
VERTEX
  8
1_0
  10
-536.4
  20
1379
  0
VERTEX
  8
1_0
  10
-530
  20
1379
  0
VERTEX
  8
1_0
  10
-530
  20
1403
  0
VERTEX
  8
1_0
  10
-536.4
  20
1403
  0
SEQEND
  0
POLYLINE
  8
1_0
  70
1
  66
1
  0
VERTEX
  8
1_0
  10
451
  20
420
  0
VERTEX
  8
1_0
  10
472
  20
420
  0
VERTEX
  8
1_0
  10
472
  20
456
  0
VERTEX
  8
1_0
  10
451
  20
456
  0
VERTEX
  8
1_0
  10
451
  20
420
  0
SEQEND
  0
POLYLINE
  8
1_0
  70
1
  66
1
  0
VERTEX
  8
1_0
  10
-280.4
  20
353.4
  0
VERTEX
  8
1_0
  10
-280.4
  20
345.4
  0
VERTEX
  8
1_0
  10
-307.6
  20
345.4
  0
VERTEX
  8
1_0
  10
-307.6
  20
353.4
  0
VERTEX
  8
1_0
  10
-314
  20
353.4
  0
VERTEX
  8
1_0
  10
-314
  20
339
  0
VERTEX
  8
1_0
  10
-274
  20
339
  0
VERTEX
  8
1_0
  10
-274
  20
353.4
  0
VERTEX
  8
1_0
  10
-280.4
  20
353.4
  0
SEQEND
  0
POLYLINE
  8
1_0
  70
1
  66
1
  0
VERTEX
  8
1_0
  10
-709.2
  20
373
  0
VERTEX
  8
1_0
  10
-714
  20
368.2
  0
VERTEX
  8
1_0
  10
-714
  20
358.6
  0
VERTEX
  8
1_0
  10
-707.6
  20
358.6
  0
VERTEX
  8
1_0
  10
-707.6
  20
365
  0
VERTEX
  8
1_0
  10
-706
  20
366.6
  0
VERTEX
  8
1_0
  10
-682
  20
366.6
  0
VERTEX
  8
1_0
  10
-680.4
  20
365
  0
VERTEX
  8
1_0
  10
-680.4
  20
358.6
  0
VERTEX
  8
1_0
  10
-674
  20
358.6
  0
VERTEX
  8
1_0
  10
-674
  20
368.2
  0
VERTEX
  8
1_0
  10
-678.8
  20
373
  0
VERTEX
  8
1_0
  10
-709.2
  20
373
  0
SEQEND
  0
POLYLINE
  8
1_0
  70
1
  66
1
  0
VERTEX
  8
1_0
  10
-680.4
  20
355.4
  0
VERTEX
  8
1_0
  10
-680.4
  20
347.4
  0
VERTEX
  8
1_0
  10
-707.6
  20
347.4
  0
VERTEX
  8
1_0
  10
-707.6
  20
355.4
  0
VERTEX
  8
1_0
  10
-714
  20
355.4
  0
VERTEX
  8
1_0
  10
-714
  20
341
  0
VERTEX
  8
1_0
  10
-674
  20
341
  0
VERTEX
  8
1_0
  10
-674
  20
355.4
  0
VERTEX
  8
1_0
  10
-680.4
  20
355.4
  0
SEQEND
  0
POLYLINE
  8
1_0
  70
1
  66
1
  0
VERTEX
  8
1_0
  10
713.6
  20
1385.4
  0
VERTEX
  8
1_0
  10
713.6
  20
1377.4
  0
VERTEX
  8
1_0
  10
686.4
  20
1377.4
  0
VERTEX
  8
1_0
  10
686.4
  20
1385.4
  0
VERTEX
  8
1_0
  10
680
  20
1385.4
  0
VERTEX
  8
1_0
  10
680
  20
1371
  0
VERTEX
  8
1_0
  10
720
  20
1371
  0
VERTEX
  8
1_0
  10
720
  20
1385.4
  0
VERTEX
  8
1_0
  10
713.6
  20
1385.4
  0
SEQEND
  0
POLYLINE
  8
1_0
  70
1
  66
1
  0
VERTEX
  8
1_0
  10
684.8
  20
1403
  0
VERTEX
  8
1_0
  10
680
  20
1398.2
  0
VERTEX
  8
1_0
  10
680
  20
1388.6
  0
VERTEX
  8
1_0
  10
686.4
  20
1388.6
  0
VERTEX
  8
1_0
  10
686.4
  20
1395
  0
VERTEX
  8
1_0
  10
688
  20
1396.6
  0
VERTEX
  8
1_0
  10
712
  20
1396.6
  0
VERTEX
  8
1_0
  10
713.6
  20
1395
  0
VERTEX
  8
1_0
  10
713.6
  20
1388.6
  0
VERTEX
  8
1_0
  10
720
  20
1388.6
  0
VERTEX
  8
1_0
  10
720
  20
1398.2
  0
VERTEX
  8
1_0
  10
715.2
  20
1403
  0
VERTEX
  8
1_0
  10
684.8
  20
1403
  0
SEQEND
  0
POLYLINE
  8
1_0
  70
1
  66
1
  0
VERTEX
  8
1_0
  10
419.6
  20
1348.4
  0
VERTEX
  8
1_0
  10
419.6
  20
1340.4
  0
VERTEX
  8
1_0
  10
392.4
  20
1340.4
  0
VERTEX
  8
1_0
  10
392.4
  20
1348.4
  0
VERTEX
  8
1_0
  10
386
  20
1348.4
  0
VERTEX
  8
1_0
  10
386
  20
1334
  0
VERTEX
  8
1_0
  10
426
  20
1334
  0
VERTEX
  8
1_0
  10
426
  20
1348.4
  0
VERTEX
  8
1_0
  10
419.6
  20
1348.4
  0
SEQEND
  0
POLYLINE
  8
1_0
  70
1
  66
1
  0
VERTEX
  8
1_0
  10
390.8
  20
1366
  0
VERTEX
  8
1_0
  10
386
  20
1361.2
  0
VERTEX
  8
1_0
  10
386
  20
1351.6
  0
VERTEX
  8
1_0
  10
392.4
  20
1351.6
  0
VERTEX
  8
1_0
  10
392.4
  20
1358
  0
VERTEX
  8
1_0
  10
394
  20
1359.6
  0
VERTEX
  8
1_0
  10
418
  20
1359.6
  0
VERTEX
  8
1_0
  10
419.6
  20
1358
  0
VERTEX
  8
1_0
  10
419.6
  20
1351.6
  0
VERTEX
  8
1_0
  10
426
  20
1351.6
  0
VERTEX
  8
1_0
  10
426
  20
1361.2
  0
VERTEX
  8
1_0
  10
421.2
  20
1366
  0
VERTEX
  8
1_0
  10
390.8
  20
1366
  0
SEQEND
  0
POLYLINE
  8
1_0
  70
1
  66
1
  0
VERTEX
  8
1_0
  10
-168.2
  20
1405
  0
VERTEX
  8
1_0
  10
-173
  20
1400.2
  0
VERTEX
  8
1_0
  10
-173
  20
1390.6
  0
VERTEX
  8
1_0
  10
-166.6
  20
1390.6
  0
VERTEX
  8
1_0
  10
-166.6
  20
1397
  0
VERTEX
  8
1_0
  10
-165
  20
1398.6
  0
VERTEX
  8
1_0
  10
-141
  20
1398.6
  0
VERTEX
  8
1_0
  10
-139.4
  20
1397
  0
VERTEX
  8
1_0
  10
-139.4
  20
1390.6
  0
VERTEX
  8
1_0
  10
-133
  20
1390.6
  0
VERTEX
  8
1_0
  10
-133
  20
1400.2
  0
VERTEX
  8
1_0
  10
-137.8
  20
1405
  0
VERTEX
  8
1_0
  10
-168.2
  20
1405
  0
SEQEND
  0
POLYLINE
  8
1_0
  70
1
  66
1
  0
VERTEX
  8
1_0
  10
-139.4
  20
1387.4
  0
VERTEX
  8
1_0
  10
-139.4
  20
1379.4
  0
VERTEX
  8
1_0
  10
-166.6
  20
1379.4
  0
VERTEX
  8
1_0
  10
-166.6
  20
1387.4
  0
VERTEX
  8
1_0
  10
-173
  20
1387.4
  0
VERTEX
  8
1_0
  10
-173
  20
1373
  0
VERTEX
  8
1_0
  10
-133
  20
1373
  0
VERTEX
  8
1_0
  10
-133
  20
1387.4
  0
VERTEX
  8
1_0
  10
-139.4
  20
1387.4
  0
SEQEND
  0
POLYLINE
  8
1_0
  70
1
  66
1
  0
VERTEX
  8
1_0
  10
-734.4
  20
1385.4
  0
VERTEX
  8
1_0
  10
-734.4
  20
1377.4
  0
VERTEX
  8
1_0
  10
-761.6
  20
1377.4
  0
VERTEX
  8
1_0
  10
-761.6
  20
1385.4
  0
VERTEX
  8
1_0
  10
-768
  20
1385.4
  0
VERTEX
  8
1_0
  10
-768
  20
1371
  0
VERTEX
  8
1_0
  10
-728
  20
1371
  0
VERTEX
  8
1_0
  10
-728
  20
1385.4
  0
VERTEX
  8
1_0
  10
-734.4
  20
1385.4
  0
SEQEND
  0
POLYLINE
  8
1_0
  70
1
  66
1
  0
VERTEX
  8
1_0
  10
513.6
  20
303.4
  0
VERTEX
  8
1_0
  10
513.6
  20
295.4
  0
VERTEX
  8
1_0
  10
486.4
  20
295.4
  0
VERTEX
  8
1_0
  10
486.4
  20
303.4
  0
VERTEX
  8
1_0
  10
480
  20
303.4
  0
VERTEX
  8
1_0
  10
480
  20
289
  0
VERTEX
  8
1_0
  10
520
  20
289
  0
VERTEX
  8
1_0
  10
520
  20
303.4
  0
VERTEX
  8
1_0
  10
513.6
  20
303.4
  0
SEQEND
  0
POLYLINE
  8
1_0
  70
1
  66
1
  0
VERTEX
  8
1_0
  10
484.8
  20
321
  0
VERTEX
  8
1_0
  10
480
  20
316.2
  0
VERTEX
  8
1_0
  10
480
  20
306.6
  0
VERTEX
  8
1_0
  10
486.4
  20
306.6
  0
VERTEX
  8
1_0
  10
486.4
  20
313
  0
VERTEX
  8
1_0
  10
488
  20
314.6
  0
VERTEX
  8
1_0
  10
512
  20
314.6
  0
VERTEX
  8
1_0
  10
513.6
  20
313
  0
VERTEX
  8
1_0
  10
513.6
  20
306.6
  0
VERTEX
  8
1_0
  10
520
  20
306.6
  0
VERTEX
  8
1_0
  10
520
  20
316.2
  0
VERTEX
  8
1_0
  10
515.2
  20
321
  0
VERTEX
  8
1_0
  10
484.8
  20
321
  0
SEQEND
  0
POLYLINE
  8
1_0
  70
1
  66
1
  0
VERTEX
  8
1_0
  10
54.8
  20
324
  0
VERTEX
  8
1_0
  10
50
  20
319.2
  0
VERTEX
  8
1_0
  10
50
  20
309.6
  0
VERTEX
  8
1_0
  10
56.4
  20
309.6
  0
VERTEX
  8
1_0
  10
56.4
  20
316
  0
VERTEX
  8
1_0
  10
58
  20
317.6
  0
VERTEX
  8
1_0
  10
82
  20
317.6
  0
VERTEX
  8
1_0
  10
83.6
  20
316
  0
VERTEX
  8
1_0
  10
83.6
  20
309.6
  0
VERTEX
  8
1_0
  10
90
  20
309.6
  0
VERTEX
  8
1_0
  10
90
  20
319.2
  0
VERTEX
  8
1_0
  10
85.2
  20
324
  0
VERTEX
  8
1_0
  10
54.8
  20
324
  0
SEQEND
  0
POLYLINE
  8
1_0
  70
1
  66
1
  0
VERTEX
  8
1_0
  10
83.6
  20
306.4
  0
VERTEX
  8
1_0
  10
83.6
  20
298.4
  0
VERTEX
  8
1_0
  10
56.4
  20
298.4
  0
VERTEX
  8
1_0
  10
56.4
  20
306.4
  0
VERTEX
  8
1_0
  10
50
  20
306.4
  0
VERTEX
  8
1_0
  10
50
  20
292
  0
VERTEX
  8
1_0
  10
90
  20
292
  0
VERTEX
  8
1_0
  10
90
  20
306.4
  0
VERTEX
  8
1_0
  10
83.6
  20
306.4
  0
SEQEND
  0
POLYLINE
  8
1_0
  70
1
  66
1
  0
VERTEX
  8
1_0
  10
-477.4
  20
318.4
  0
VERTEX
  8
1_0
  10
-477.4
  20
310.4
  0
VERTEX
  8
1_0
  10
-504.6
  20
310.4
  0
VERTEX
  8
1_0
  10
-504.6
  20
318.4
  0
VERTEX
  8
1_0
  10
-511
  20
318.4
  0
VERTEX
  8
1_0
  10
-511
  20
304
  0
VERTEX
  8
1_0
  10
-471
  20
304
  0
VERTEX
  8
1_0
  10
-471
  20
318.4
  0
VERTEX
  8
1_0
  10
-477.4
  20
318.4
  0
SEQEND
  0
POLYLINE
  8
1_0
  70
1
  66
1
  0
VERTEX
  8
1_0
  10
-506.2
  20
336
  0
VERTEX
  8
1_0
  10
-511
  20
331.2
  0
VERTEX
  8
1_0
  10
-511
  20
321.6
  0
VERTEX
  8
1_0
  10
-504.6
  20
321.6
  0
VERTEX
  8
1_0
  10
-504.6
  20
328
  0
VERTEX
  8
1_0
  10
-503
  20
329.6
  0
VERTEX
  8
1_0
  10
-479
  20
329.6
  0
VERTEX
  8
1_0
  10
-477.4
  20
328
  0
VERTEX
  8
1_0
  10
-477.4
  20
321.6
  0
VERTEX
  8
1_0
  10
-471
  20
321.6
  0
VERTEX
  8
1_0
  10
-471
  20
331.2
  0
VERTEX
  8
1_0
  10
-475.8
  20
336
  0
VERTEX
  8
1_0
  10
-506.2
  20
336
  0
SEQEND
  0
POLYLINE
  8
1_0
  70
1
  66
1
  0
VERTEX
  8
1_0
  10
650.8
  20
361
  0
VERTEX
  8
1_0
  10
646
  20
356.2
  0
VERTEX
  8
1_0
  10
646
  20
346.6
  0
VERTEX
  8
1_0
  10
652.4
  20
346.6
  0
VERTEX
  8
1_0
  10
652.4
  20
353
  0
VERTEX
  8
1_0
  10
654
  20
354.6
  0
VERTEX
  8
1_0
  10
678
  20
354.6
  0
VERTEX
  8
1_0
  10
679.6
  20
353
  0
VERTEX
  8
1_0
  10
679.6
  20
346.6
  0
VERTEX
  8
1_0
  10
686
  20
346.6
  0
VERTEX
  8
1_0
  10
686
  20
356.2
  0
VERTEX
  8
1_0
  10
681.2
  20
361
  0
VERTEX
  8
1_0
  10
650.8
  20
361
  0
SEQEND
  0
POLYLINE
  8
1_0
  70
1
  66
1
  0
VERTEX
  8
1_0
  10
679.6
  20
343.4
  0
VERTEX
  8
1_0
  10
679.6
  20
335.4
  0
VERTEX
  8
1_0
  10
652.4
  20
335.4
  0
VERTEX
  8
1_0
  10
652.4
  20
343.4
  0
VERTEX
  8
1_0
  10
646
  20
343.4
  0
VERTEX
  8
1_0
  10
646
  20
329
  0
VERTEX
  8
1_0
  10
686
  20
329
  0
VERTEX
  8
1_0
  10
686
  20
343.4
  0
VERTEX
  8
1_0
  10
679.6
  20
343.4
  0
SEQEND
  0
POLYLINE
  8
1_0
  70
1
  66
1
  0
VERTEX
  8
1_0
  10
252.8
  20
362
  0
VERTEX
  8
1_0
  10
248
  20
357.2
  0
VERTEX
  8
1_0
  10
248
  20
347.6
  0
VERTEX
  8
1_0
  10
254.4
  20
347.6
  0
VERTEX
  8
1_0
  10
254.4
  20
354
  0
VERTEX
  8
1_0
  10
256
  20
355.6
  0
VERTEX
  8
1_0
  10
280
  20
355.6
  0
VERTEX
  8
1_0
  10
281.6
  20
354
  0
VERTEX
  8
1_0
  10
281.6
  20
347.6
  0
VERTEX
  8
1_0
  10
288
  20
347.6
  0
VERTEX
  8
1_0
  10
288
  20
357.2
  0
VERTEX
  8
1_0
  10
283.2
  20
362
  0
VERTEX
  8
1_0
  10
252.8
  20
362
  0
SEQEND
  0
POLYLINE
  8
1_0
  70
1
  66
1
  0
VERTEX
  8
1_0
  10
281.6
  20
344.4
  0
VERTEX
  8
1_0
  10
281.6
  20
336.4
  0
VERTEX
  8
1_0
  10
254.4
  20
336.4
  0
VERTEX
  8
1_0
  10
254.4
  20
344.4
  0
VERTEX
  8
1_0
  10
248
  20
344.4
  0
VERTEX
  8
1_0
  10
248
  20
330
  0
VERTEX
  8
1_0
  10
288
  20
330
  0
VERTEX
  8
1_0
  10
288
  20
344.4
  0
VERTEX
  8
1_0
  10
281.6
  20
344.4
  0
SEQEND
  0
POLYLINE
  8
1_0
  70
1
  66
1
  0
VERTEX
  8
1_0
  10
-309.2
  20
371
  0
VERTEX
  8
1_0
  10
-314
  20
366.2
  0
VERTEX
  8
1_0
  10
-314
  20
356.6
  0
VERTEX
  8
1_0
  10
-307.6
  20
356.6
  0
VERTEX
  8
1_0
  10
-307.6
  20
363
  0
VERTEX
  8
1_0
  10
-306
  20
364.6
  0
VERTEX
  8
1_0
  10
-282
  20
364.6
  0
VERTEX
  8
1_0
  10
-280.4
  20
363
  0
VERTEX
  8
1_0
  10
-280.4
  20
356.6
  0
VERTEX
  8
1_0
  10
-274
  20
356.6
  0
VERTEX
  8
1_0
  10
-274
  20
366.2
  0
VERTEX
  8
1_0
  10
-278.8
  20
371
  0
VERTEX
  8
1_0
  10
-309.2
  20
371
  0
SEQEND
  0
POLYLINE
  8
1_0
  70
1
  66
1
  0
VERTEX
  8
1_0
  10
-763.2
  20
1403
  0
VERTEX
  8
1_0
  10
-768
  20
1398.2
  0
VERTEX
  8
1_0
  10
-768
  20
1388.6
  0
VERTEX
  8
1_0
  10
-761.6
  20
1388.6
  0
VERTEX
  8
1_0
  10
-761.6
  20
1395
  0
VERTEX
  8
1_0
  10
-760
  20
1396.6
  0
VERTEX
  8
1_0
  10
-736
  20
1396.6
  0
VERTEX
  8
1_0
  10
-734.4
  20
1395
  0
VERTEX
  8
1_0
  10
-734.4
  20
1388.6
  0
VERTEX
  8
1_0
  10
-728
  20
1388.6
  0
VERTEX
  8
1_0
  10
-728
  20
1398.2
  0
VERTEX
  8
1_0
  10
-732.8
  20
1403
  0
VERTEX
  8
1_0
  10
-763.2
  20
1403
  0
SEQEND
  0
POLYLINE
  8
1_0
  70
1
  66
1
  0
VERTEX
  8
1_0
  10
-763.4
  20
589.4
  0
VERTEX
  8
1_0
  10
-757
  20
589.4
  0
VERTEX
  8
1_0
  10
-761.8
  20
600.6
  0
VERTEX
  8
1_0
  10
-763.4
  20
600.6
  0
VERTEX
  8
1_0
  10
-763.4
  20
607
  0
VERTEX
  8
1_0
  10
-757.8
  20
607
  0
VERTEX
  8
1_0
  10
-749
  20
585.4
  0
VERTEX
  8
1_0
  10
-749
  20
567
  0
VERTEX
  8
1_0
  10
-755.4
  20
567
  0
VERTEX
  8
1_0
  10
-755.4
  20
583
  0
VERTEX
  8
1_0
  10
-763.4
  20
583
  0
VERTEX
  8
1_0
  10
-763.4
  20
589.4
  0
SEQEND
  0
POLYLINE
  8
1_0
  70
1
  66
1
  0
VERTEX
  8
1_0
  10
-766.6
  20
589.4
  0
VERTEX
  8
1_0
  10
-773
  20
589.4
  0
VERTEX
  8
1_0
  10
-768.2
  20
600.6
  0
VERTEX
  8
1_0
  10
-766.6
  20
600.6
  0
VERTEX
  8
1_0
  10
-766.6
  20
607
  0
VERTEX
  8
1_0
  10
-772.2
  20
607
  0
VERTEX
  8
1_0
  10
-781
  20
585.4
  0
VERTEX
  8
1_0
  10
-781
  20
567
  0
VERTEX
  8
1_0
  10
-774.6
  20
567
  0
VERTEX
  8
1_0
  10
-774.6
  20
583
  0
VERTEX
  8
1_0
  10
-766.6
  20
583
  0
VERTEX
  8
1_0
  10
-766.6
  20
589.4
  0
SEQEND
  0
POLYLINE
  8
1_0
  70
1
  66
1
  0
VERTEX
  8
1_0
  10
-806.6
  20
590.2
  0
VERTEX
  8
1_0
  10
-814.6
  20
590.2
  0
VERTEX
  8
1_0
  10
-814.6
  20
600.6
  0
VERTEX
  8
1_0
  10
-806.6
  20
600.6
  0
VERTEX
  8
1_0
  10
-806.6
  20
607
  0
VERTEX
  8
1_0
  10
-821
  20
607
  0
VERTEX
  8
1_0
  10
-821
  20
567
  0
VERTEX
  8
1_0
  10
-814.6
  20
567
  0
VERTEX
  8
1_0
  10
-814.6
  20
583.8
  0
VERTEX
  8
1_0
  10
-806.6
  20
583.8
  0
VERTEX
  8
1_0
  10
-806.6
  20
590.2
  0
SEQEND
  0
POLYLINE
  8
1_0
  70
1
  66
1
  0
VERTEX
  8
1_0
  10
850.8
  20
1299
  0
VERTEX
  8
1_0
  10
849
  20
1297.2
  0
VERTEX
  8
1_0
  10
847.2
  20
1299
  0
VERTEX
  8
1_0
  10
837.6
  20
1299
  0
VERTEX
  8
1_0
  10
834
  20
1295.4
  0
VERTEX
  8
1_0
  10
834
  20
1278.6
  0
VERTEX
  8
1_0
  10
837.6
  20
1275
  0
VERTEX
  8
1_0
  10
843
  20
1275
  0
VERTEX
  8
1_0
  10
843
  20
1279.8
  0
VERTEX
  8
1_0
  10
840.3
  20
1279.8
  0
VERTEX
  8
1_0
  10
838.8
  20
1281.3
  0
VERTEX
  8
1_0
  10
838.8
  20
1292.7
  0
VERTEX
  8
1_0
  10
840.3
  20
1294.2
  0
VERTEX
  8
1_0
  10
845.1
  20
1294.2
  0
VERTEX
  8
1_0
  10
846.6
  20
1292.7
  0
VERTEX
  8
1_0
  10
846.6
  20
1282.8
  0
VERTEX
  8
1_0
  10
851.4
  20
1282.8
  0
VERTEX
  8
1_0
  10
851.4
  20
1292.7
  0
VERTEX
  8
1_0
  10
852.9
  20
1294.2
  0
VERTEX
  8
1_0
  10
857.7
  20
1294.2
  0
VERTEX
  8
1_0
  10
859.2
  20
1292.7
  0
VERTEX
  8
1_0
  10
859.2
  20
1281.3
  0
VERTEX
  8
1_0
  10
857.7
  20
1279.8
  0
VERTEX
  8
1_0
  10
855
  20
1279.8
  0
VERTEX
  8
1_0
  10
855
  20
1275
  0
VERTEX
  8
1_0
  10
860.4
  20
1275
  0
VERTEX
  8
1_0
  10
864
  20
1278.6
  0
VERTEX
  8
1_0
  10
864
  20
1295.4
  0
VERTEX
  8
1_0
  10
860.4
  20
1299
  0
VERTEX
  8
1_0
  10
850.8
  20
1299
  0
SEQEND
  0
POLYLINE
  8
1_0
  70
1
  66
1
  0
VERTEX
  8
1_0
  10
850.8
  20
1269
  0
VERTEX
  8
1_0
  10
849
  20
1267.2
  0
VERTEX
  8
1_0
  10
847.2
  20
1269
  0
VERTEX
  8
1_0
  10
837.6
  20
1269
  0
VERTEX
  8
1_0
  10
834
  20
1265.4
  0
VERTEX
  8
1_0
  10
834
  20
1248.6
  0
VERTEX
  8
1_0
  10
837.6
  20
1245
  0
VERTEX
  8
1_0
  10
843
  20
1245
  0
VERTEX
  8
1_0
  10
843
  20
1249.8
  0
VERTEX
  8
1_0
  10
840.3
  20
1249.8
  0
VERTEX
  8
1_0
  10
838.8
  20
1251.3
  0
VERTEX
  8
1_0
  10
838.8
  20
1262.7
  0
VERTEX
  8
1_0
  10
840.3
  20
1264.2
  0
VERTEX
  8
1_0
  10
845.1
  20
1264.2
  0
VERTEX
  8
1_0
  10
846.6
  20
1262.7
  0
VERTEX
  8
1_0
  10
846.6
  20
1252.8
  0
VERTEX
  8
1_0
  10
851.4
  20
1252.8
  0
VERTEX
  8
1_0
  10
851.4
  20
1262.7
  0
VERTEX
  8
1_0
  10
852.9
  20
1264.2
  0
VERTEX
  8
1_0
  10
857.7
  20
1264.2
  0
VERTEX
  8
1_0
  10
859.2
  20
1262.7
  0
VERTEX
  8
1_0
  10
859.2
  20
1251.3
  0
VERTEX
  8
1_0
  10
857.7
  20
1249.8
  0
VERTEX
  8
1_0
  10
855
  20
1249.8
  0
VERTEX
  8
1_0
  10
855
  20
1245
  0
VERTEX
  8
1_0
  10
860.4
  20
1245
  0
VERTEX
  8
1_0
  10
864
  20
1248.6
  0
VERTEX
  8
1_0
  10
864
  20
1265.4
  0
VERTEX
  8
1_0
  10
860.4
  20
1269
  0
VERTEX
  8
1_0
  10
850.8
  20
1269
  0
SEQEND
  0
POLYLINE
  8
1_0
  70
1
  66
1
  0
VERTEX
  8
1_0
  10
834
  20
1125
  0
VERTEX
  8
1_0
  10
834
  20
1120.2
  0
VERTEX
  8
1_0
  10
855
  20
1120.2
  0
VERTEX
  8
1_0
  10
834
  20
1105.8
  0
VERTEX
  8
1_0
  10
834
  20
1101
  0
VERTEX
  8
1_0
  10
864
  20
1101
  0
VERTEX
  8
1_0
  10
864
  20
1105.8
  0
VERTEX
  8
1_0
  10
843
  20
1105.8
  0
VERTEX
  8
1_0
  10
864
  20
1120.2
  0
VERTEX
  8
1_0
  10
864
  20
1125
  0
VERTEX
  8
1_0
  10
834
  20
1125
  0
SEQEND
  0
POLYLINE
  8
1_0
  70
1
  66
1
  0
VERTEX
  8
1_0
  10
859.2
  20
1239
  0
VERTEX
  8
1_0
  10
859.2
  20
1232.4
  0
VERTEX
  8
1_0
  10
834
  20
1232.4
  0
VERTEX
  8
1_0
  10
834
  20
1225.8
  0
VERTEX
  8
1_0
  10
838.8
  20
1225.8
  0
VERTEX
  8
1_0
  10
838.8
  20
1227.6
  0
VERTEX
  8
1_0
  10
859.2
  20
1227.6
  0
VERTEX
  8
1_0
  10
859.2
  20
1221
  0
VERTEX
  8
1_0
  10
864
  20
1221
  0
VERTEX
  8
1_0
  10
864
  20
1239
  0
VERTEX
  8
1_0
  10
859.2
  20
1239
  0
SEQEND
  0
POLYLINE
  8
1_0
  70
1
  66
1
  0
VERTEX
  8
1_0
  10
837.6
  20
1215
  0
VERTEX
  8
1_0
  10
834
  20
1210.8
  0
VERTEX
  8
1_0
  10
834
  20
1204.2
  0
VERTEX
  8
1_0
  10
838.8
  20
1204.2
  0
VERTEX
  8
1_0
  10
838.8
  20
1209
  0
VERTEX
  8
1_0
  10
840
  20
1210.2
  0
VERTEX
  8
1_0
  10
858
  20
1210.2
  0
VERTEX
  8
1_0
  10
859.2
  20
1209
  0
VERTEX
  8
1_0
  10
859.2
  20
1204.2
  0
VERTEX
  8
1_0
  10
864
  20
1204.2
  0
VERTEX
  8
1_0
  10
864
  20
1211.4
  0
VERTEX
  8
1_0
  10
860.4
  20
1215
  0
VERTEX
  8
1_0
  10
837.6
  20
1215
  0
SEQEND
  0
POLYLINE
  8
1_0
  70
1
  66
1
  0
VERTEX
  8
1_0
  10
859.2
  20
1201.8
  0
VERTEX
  8
1_0
  10
859.2
  20
1197
  0
VERTEX
  8
1_0
  10
858
  20
1195.8
  0
VERTEX
  8
1_0
  10
840
  20
1195.8
  0
VERTEX
  8
1_0
  10
838.8
  20
1197
  0
VERTEX
  8
1_0
  10
838.8
  20
1201.8
  0
VERTEX
  8
1_0
  10
834
  20
1201.8
  0
VERTEX
  8
1_0
  10
834
  20
1194.6
  0
VERTEX
  8
1_0
  10
837.6
  20
1191
  0
VERTEX
  8
1_0
  10
860.4
  20
1191
  0
VERTEX
  8
1_0
  10
864
  20
1194.6
  0
VERTEX
  8
1_0
  10
864
  20
1201.8
  0
VERTEX
  8
1_0
  10
859.2
  20
1201.8
  0
SEQEND
  0
POLYLINE
  8
1_0
  70
1
  66
1
  0
VERTEX
  8
1_0
  10
837.6
  20
1185
  0
VERTEX
  8
1_0
  10
834
  20
1180.8
  0
VERTEX
  8
1_0
  10
834
  20
1174.2
  0
VERTEX
  8
1_0
  10
838.8
  20
1174.2
  0
VERTEX
  8
1_0
  10
838.8
  20
1179
  0
VERTEX
  8
1_0
  10
840
  20
1180.2
  0
VERTEX
  8
1_0
  10
858
  20
1180.2
  0
VERTEX
  8
1_0
  10
859.2
  20
1179
  0
VERTEX
  8
1_0
  10
859.2
  20
1174.2
  0
VERTEX
  8
1_0
  10
864
  20
1174.2
  0
VERTEX
  8
1_0
  10
864
  20
1181.4
  0
VERTEX
  8
1_0
  10
860.4
  20
1185
  0
VERTEX
  8
1_0
  10
837.6
  20
1185
  0
SEQEND
  0
POLYLINE
  8
1_0
  70
1
  66
1
  0
VERTEX
  8
1_0
  10
859.2
  20
1171.8
  0
VERTEX
  8
1_0
  10
859.2
  20
1167
  0
VERTEX
  8
1_0
  10
858
  20
1165.8
  0
VERTEX
  8
1_0
  10
840
  20
1165.8
  0
VERTEX
  8
1_0
  10
838.8
  20
1167
  0
VERTEX
  8
1_0
  10
838.8
  20
1171.8
  0
VERTEX
  8
1_0
  10
834
  20
1171.8
  0
VERTEX
  8
1_0
  10
834
  20
1164.6
  0
VERTEX
  8
1_0
  10
837.6
  20
1161
  0
VERTEX
  8
1_0
  10
860.4
  20
1161
  0
VERTEX
  8
1_0
  10
864
  20
1164.6
  0
VERTEX
  8
1_0
  10
864
  20
1171.8
  0
VERTEX
  8
1_0
  10
859.2
  20
1171.8
  0
SEQEND
  0
POLYLINE
  8
1_0
  70
1
  66
1
  0
VERTEX
  8
1_0
  10
837.6
  20
1155
  0
VERTEX
  8
1_0
  10
834
  20
1150.8
  0
VERTEX
  8
1_0
  10
834
  20
1144.2
  0
VERTEX
  8
1_0
  10
838.8
  20
1144.2
  0
VERTEX
  8
1_0
  10
838.8
  20
1149
  0
VERTEX
  8
1_0
  10
840
  20
1150.2
  0
VERTEX
  8
1_0
  10
858
  20
1150.2
  0
VERTEX
  8
1_0
  10
859.2
  20
1149
  0
VERTEX
  8
1_0
  10
859.2
  20
1144.2
  0
VERTEX
  8
1_0
  10
864
  20
1144.2
  0
VERTEX
  8
1_0
  10
864
  20
1151.4
  0
VERTEX
  8
1_0
  10
860.4
  20
1155
  0
VERTEX
  8
1_0
  10
837.6
  20
1155
  0
SEQEND
  0
POLYLINE
  8
1_0
  70
1
  66
1
  0
VERTEX
  8
1_0
  10
846.6
  20
1081.8
  0
VERTEX
  8
1_0
  10
846.6
  20
1075.8
  0
VERTEX
  8
1_0
  10
838.8
  20
1075.8
  0
VERTEX
  8
1_0
  10
838.8
  20
1081.8
  0
VERTEX
  8
1_0
  10
834
  20
1081.8
  0
VERTEX
  8
1_0
  10
834
  20
1071
  0
VERTEX
  8
1_0
  10
864
  20
1071
  0
VERTEX
  8
1_0
  10
864
  20
1075.8
  0
VERTEX
  8
1_0
  10
851.4
  20
1075.8
  0
VERTEX
  8
1_0
  10
851.4
  20
1081.8
  0
VERTEX
  8
1_0
  10
846.6
  20
1081.8
  0
SEQEND
  0
POLYLINE
  8
1_0
  70
1
  66
1
  0
VERTEX
  8
1_0
  10
859.2
  20
1141.8
  0
VERTEX
  8
1_0
  10
859.2
  20
1137
  0
VERTEX
  8
1_0
  10
858
  20
1135.8
  0
VERTEX
  8
1_0
  10
840
  20
1135.8
  0
VERTEX
  8
1_0
  10
838.8
  20
1137
  0
VERTEX
  8
1_0
  10
838.8
  20
1141.8
  0
VERTEX
  8
1_0
  10
834
  20
1141.8
  0
VERTEX
  8
1_0
  10
834
  20
1134.6
  0
VERTEX
  8
1_0
  10
837.6
  20
1131
  0
VERTEX
  8
1_0
  10
860.4
  20
1131
  0
VERTEX
  8
1_0
  10
864
  20
1134.6
  0
VERTEX
  8
1_0
  10
864
  20
1141.8
  0
VERTEX
  8
1_0
  10
859.2
  20
1141.8
  0
SEQEND
  0
POLYLINE
  8
1_0
  70
1
  66
1
  0
VERTEX
  8
1_0
  10
-789
  20
602.2
  0
VERTEX
  8
1_0
  10
-793.8
  20
607
  0
VERTEX
  8
1_0
  10
-803.4
  20
607
  0
VERTEX
  8
1_0
  10
-803.4
  20
600.6
  0
VERTEX
  8
1_0
  10
-797
  20
600.6
  0
VERTEX
  8
1_0
  10
-795.4
  20
599
  0
VERTEX
  8
1_0
  10
-795.4
  20
591.8
  0
VERTEX
  8
1_0
  10
-797
  20
590.2
  0
VERTEX
  8
1_0
  10
-803.4
  20
590.2
  0
VERTEX
  8
1_0
  10
-803.4
  20
583.8
  0
VERTEX
  8
1_0
  10
-793.8
  20
583.8
  0
VERTEX
  8
1_0
  10
-789
  20
588.6
  0
VERTEX
  8
1_0
  10
-789
  20
602.2
  0
SEQEND
  0
POLYLINE
  8
1_0
  70
1
  66
1
  0
VERTEX
  8
1_0
  10
451
  20
420
  0
VERTEX
  8
1_0
  10
472
  20
420
  0
VERTEX
  8
1_0
  10
472
  20
429
  0
VERTEX
  8
1_0
  10
451
  20
429
  0
VERTEX
  8
1_0
  10
451
  20
420
  0
SEQEND
  0
POLYLINE
  8
1_0
  70
1
  66
1
  0
VERTEX
  8
1_0
  10
837.6
  20
1095
  0
VERTEX
  8
1_0
  10
834
  20
1091.4
  0
VERTEX
  8
1_0
  10
834
  20
1084.2
  0
VERTEX
  8
1_0
  10
838.8
  20
1084.2
  0
VERTEX
  8
1_0
  10
838.8
  20
1089
  0
VERTEX
  8
1_0
  10
840
  20
1090.2
  0
VERTEX
  8
1_0
  10
845.4
  20
1090.2
  0
VERTEX
  8
1_0
  10
846.6
  20
1089
  0
VERTEX
  8
1_0
  10
846.6
  20
1084.2
  0
VERTEX
  8
1_0
  10
851.4
  20
1084.2
  0
VERTEX
  8
1_0
  10
851.4
  20
1091.4
  0
VERTEX
  8
1_0
  10
847.8
  20
1095
  0
VERTEX
  8
1_0
  10
837.6
  20
1095
  0
SEQEND
  0
POLYLINE
  8
56_0
  70
1
  66
1
  0
VERTEX
  8
56_0
  10
-1129
  20
206
  0
VERTEX
  8
56_0
  10
931
  20
206
  0
VERTEX
  8
56_0
  10
931
  20
1456
  0
VERTEX
  8
56_0
  10
-1129
  20
1456
  0
VERTEX
  8
56_0
  10
-1129
  20
256
  0
VERTEX
  8
56_0
  10
-1079
  20
256
  0
VERTEX
  8
56_0
  10
-1079
  20
1406
  0
VERTEX
  8
56_0
  10
881
  20
1406
  0
VERTEX
  8
56_0
  10
881
  20
256
  0
VERTEX
  8
56_0
  10
-1129
  20
256
  0
VERTEX
  8
56_0
  10
-1129
  20
206
  0
SEQEND
  0
ENDSEC
  0
EOF
