  0
SECTION
  2
HEADER
  9
$ACADVER
  1
AC1018
  9
$ACADMAINTVER
 70
   104
  9
$DWGCODEPAGE
  3
ANSI_1252
  9
$LASTSAVEDBY
  1
PAMacdonald
  9
$INSBASE
 10
0.0
 20
0.0
 30
0.0
  9
$EXTMIN
 10
-0.0628614146990003
 20
-0.0381440623177696
 30
-0.0015258207003583
  9
$EXTMAX
 10
2060.062871007322
 20
1250.038149883083
 30
0.0000000349246037
  9
$LIMMIN
 10
0.0
 20
0.0
  9
$LIMMAX
 10
12.0
 20
9.0
  9
$ORTHOMODE
 70
     0
  9
$REGENMODE
 70
     1
  9
$FILLMODE
 70
     1
  9
$QTEXTMODE
 70
     0
  9
$MIRRTEXT
 70
     0
  9
$LTSCALE
 40
1.0
  9
$ATTMODE
 70
     1
  9
$TEXTSIZE
 40
0.2
  9
$TRACEWID
 40
0.05
  9
$TEXTSTYLE
  7
Standard
  9
$CLAYER
  8
0
  9
$CELTYPE
  6
CONTINUOUS
  9
$CECOLOR
 62
   256
  9
$CELTSCALE
 40
1.0
  9
$DISPSILH
 70
     0
  9
$DIMSCALE
 40
1.0
  9
$DIMASZ
 40
0.18
  9
$DIMEXO
 40
0.0625
  9
$DIMDLI
 40
0.38
  9
$DIMRND
 40
0.0
  9
$DIMDLE
 40
0.0
  9
$DIMEXE
 40
0.18
  9
$DIMTP
 40
0.0
  9
$DIMTM
 40
0.0
  9
$DIMTXT
 40
0.18
  9
$DIMCEN
 40
0.09
  9
$DIMTSZ
 40
0.0
  9
$DIMTOL
 70
     0
  9
$DIMLIM
 70
     0
  9
$DIMTIH
 70
     1
  9
$DIMTOH
 70
     1
  9
$DIMSE1
 70
     0
  9
$DIMSE2
 70
     0
  9
$DIMTAD
 70
     0
  9
$DIMZIN
 70
     0
  9
$DIMBLK
  1

  9
$DIMASO
 70
     1
  9
$DIMSHO
 70
     1
  9
$DIMPOST
  1

  9
$DIMAPOST
  1

  9
$DIMALT
 70
     0
  9
$DIMALTD
 70
     2
  9
$DIMALTF
 40
25.4
  9
$DIMLFAC
 40
1.0
  9
$DIMTOFL
 70
     0
  9
$DIMTVP
 40
0.0
  9
$DIMTIX
 70
     0
  9
$DIMSOXD
 70
     0
  9
$DIMSAH
 70
     0
  9
$DIMBLK1
  1

  9
$DIMBLK2
  1

  9
$DIMSTYLE
  2
Standard
  9
$DIMCLRD
 70
     0
  9
$DIMCLRE
 70
     0
  9
$DIMCLRT
 70
     0
  9
$DIMTFAC
 40
1.0
  9
$DIMGAP
 40
0.09
  9
$DIMJUST
 70
     0
  9
$DIMSD1
 70
     0
  9
$DIMSD2
 70
     0
  9
$DIMTOLJ
 70
     1
  9
$DIMTZIN
 70
     0
  9
$DIMALTZ
 70
     0
  9
$DIMALTTZ
 70
     0
  9
$DIMUPT
 70
     0
  9
$DIMDEC
 70
     4
  9
$DIMTDEC
 70
     4
  9
$DIMALTU
 70
     2
  9
$DIMALTTD
 70
     2
  9
$DIMTXSTY
  7
Standard
  9
$DIMAUNIT
 70
     0
  9
$DIMADEC
 70
     0
  9
$DIMALTRND
 40
0.0
  9
$DIMAZIN
 70
     0
  9
$DIMDSEP
 70
    46
  9
$DIMATFIT
 70
     3
  9
$DIMFRAC
 70
     0
  9
$DIMLDRBLK
  1

  9
$DIMLUNIT
 70
     2
  9
$DIMLWD
 70
    -2
  9
$DIMLWE
 70
    -2
  9
$DIMTMOVE
 70
     0
  9
$LUNITS
 70
     2
  9
$LUPREC
 70
     4
  9
$SKETCHINC
 40
0.1
  9
$FILLETRAD
 40
0.0
  9
$AUNITS
 70
     0
  9
$AUPREC
 70
     0
  9
$MENU
  1
.
  9
$ELEVATION
 40
0.0
  9
$PELEVATION
 40
0.0
  9
$THICKNESS
 40
0.0
  9
$LIMCHECK
 70
     0
  9
$CHAMFERA
 40
0.0
  9
$CHAMFERB
 40
0.0
  9
$CHAMFERC
 40
0.0
  9
$CHAMFERD
 40
0.0
  9
$SKPOLY
 70
     0
  9
$TDCREATE
 40
2455505.864178114
  9
$TDUCREATE
 40
2455506.155844780
  9
$TDUPDATE
 40
2455505.869027280
  9
$TDUUPDATE
 40
2455506.160693947
  9
$TDINDWG
 40
0.0048496991
  9
$TDUSRTIMER
 40
0.0048496991
  9
$USRTIMER
 70
     1
  9
$ANGBASE
 50
0.0
  9
$ANGDIR
 70
     0
  9
$PDMODE
 70
     0
  9
$PDSIZE
 40
0.0
  9
$PLINEWID
 40
0.0
  9
$SPLFRAME
 70
     0
  9
$SPLINETYPE
 70
     6
  9
$SPLINESEGS
 70
     8
  9
$HANDSEED
  5
6E5
  9
$SURFTAB1
 70
     6
  9
$SURFTAB2
 70
     6
  9
$SURFTYPE
 70
     6
  9
$SURFU
 70
     6
  9
$SURFV
 70
     6
  9
$UCSBASE
  2

  9
$UCSNAME
  2

  9
$UCSORG
 10
0.0
 20
0.0
 30
0.0
  9
$UCSXDIR
 10
1.0
 20
0.0
 30
0.0
  9
$UCSYDIR
 10
0.0
 20
1.0
 30
0.0
  9
$UCSORTHOREF
  2

  9
$UCSORTHOVIEW
 70
     0
  9
$UCSORGTOP
 10
0.0
 20
0.0
 30
0.0
  9
$UCSORGBOTTOM
 10
0.0
 20
0.0
 30
0.0
  9
$UCSORGLEFT
 10
0.0
 20
0.0
 30
0.0
  9
$UCSORGRIGHT
 10
0.0
 20
0.0
 30
0.0
  9
$UCSORGFRONT
 10
0.0
 20
0.0
 30
0.0
  9
$UCSORGBACK
 10
0.0
 20
0.0
 30
0.0
  9
$PUCSBASE
  2

  9
$PUCSNAME
  2

  9
$PUCSORG
 10
0.0
 20
0.0
 30
0.0
  9
$PUCSXDIR
 10
1.0
 20
0.0
 30
0.0
  9
$PUCSYDIR
 10
0.0
 20
1.0
 30
0.0
  9
$PUCSORTHOREF
  2

  9
$PUCSORTHOVIEW
 70
     0
  9
$PUCSORGTOP
 10
0.0
 20
0.0
 30
0.0
  9
$PUCSORGBOTTOM
 10
0.0
 20
0.0
 30
0.0
  9
$PUCSORGLEFT
 10
0.0
 20
0.0
 30
0.0
  9
$PUCSORGRIGHT
 10
0.0
 20
0.0
 30
0.0
  9
$PUCSORGFRONT
 10
0.0
 20
0.0
 30
0.0
  9
$PUCSORGBACK
 10
0.0
 20
0.0
 30
0.0
  9
$USERI1
 70
     0
  9
$USERI2
 70
     0
  9
$USERI3
 70
     0
  9
$USERI4
 70
     0
  9
$USERI5
 70
     0
  9
$USERR1
 40
0.0
  9
$USERR2
 40
0.0
  9
$USERR3
 40
0.0
  9
$USERR4
 40
0.0
  9
$USERR5
 40
0.0
  9
$WORLDVIEW
 70
     1
  9
$SHADEDGE
 70
     3
  9
$SHADEDIF
 70
    70
  9
$TILEMODE
 70
     1
  9
$MAXACTVP
 70
    64
  9
$PINSBASE
 10
0.0
 20
0.0
 30
0.0
  9
$PLIMCHECK
 70
     0
  9
$PEXTMIN
 10
1.000000000000000E+20
 20
1.000000000000000E+20
 30
1.000000000000000E+20
  9
$PEXTMAX
 10
-1.000000000000000E+20
 20
-1.000000000000000E+20
 30
-1.000000000000000E+20
  9
$PLIMMIN
 10
0.0
 20
0.0
  9
$PLIMMAX
 10
12.0
 20
9.0
  9
$UNITMODE
 70
     0
  9
$VISRETAIN
 70
     1
  9
$PLINEGEN
 70
     0
  9
$PSLTSCALE
 70
     1
  9
$TREEDEPTH
 70
  3020
  9
$CMLSTYLE
  2
Standard
  9
$CMLJUST
 70
     0
  9
$CMLSCALE
 40
1.0
  9
$PROXYGRAPHICS
 70
     1
  9
$MEASUREMENT
 70
     0
  9
$CELWEIGHT
370
    -1
  9
$ENDCAPS
280
     0
  9
$JOINSTYLE
280
     0
  9
$LWDISPLAY
290
     0
  9
$INSUNITS
 70
    13
  9
$HYPERLINKBASE
  1

  9
$STYLESHEET
  1

  9
$XEDIT
290
     1
  9
$CEPSNTYPE
380
     0
  9
$PSTYLEMODE
290
     1
  9
$FINGERPRINTGUID
  2
{AD39D0B9-1493-4F4A-BC23-3CA7C973B3AF}
  9
$VERSIONGUID
  2
{0A05FD26-EC86-4482-8129-3F29A1383FE2}
  9
$EXTNAMES
290
     1
  9
$PSVPSCALE
 40
0.0
  9
$OLESTARTUP
290
     0
  9
$SORTENTS
280
   127
  9
$INDEXCTL
280
     0
  9
$HIDETEXT
280
     0
  9
$XCLIPFRAME
290
     0
  9
$HALOGAP
280
     0
  9
$OBSCOLOR
 70
   257
  9
$OBSLTYPE
280
     0
  9
$INTERSECTIONDISPLAY
280
     0
  9
$INTERSECTIONCOLOR
 70
   257
  9
$DIMASSOC
280
     1
  9
$PROJECTNAME
  1

  0
ENDSEC
  0
SECTION
  2
CLASSES
  0
CLASS
  1
ACDBDICTIONARYWDFLT
  2
AcDbDictionaryWithDefault
  3
ObjectDBX Classes
 90
        0
 91
        1
280
     0
281
     0
  0
CLASS
  1
MATERIAL
  2
AcDbMaterial
  3
ObjectDBX Classes
 90
     1153
 91
        3
280
     0
281
     0
  0
CLASS
  1
VISUALSTYLE
  2
AcDbVisualStyle
  3
ObjectDBX Classes
 90
     4095
 91
       19
280
     0
281
     0
  0
CLASS
  1
SCALE
  2
AcDbScale
  3
ObjectDBX Classes
 90
     1153
 91
       33
280
     0
281
     0
  0
CLASS
  1
TABLESTYLE
  2
AcDbTableStyle
  3
ObjectDBX Classes
 90
     4095
 91
        1
280
     0
281
     0
  0
CLASS
  1
MLEADERSTYLE
  2
AcDbMLeaderStyle
  3
ACDB_MLEADERSTYLE_CLASS
 90
     4095
 91
        1
280
     0
281
     0
  0
CLASS
  1
CELLSTYLEMAP
  2
AcDbCellStyleMap
  3
ObjectDBX Classes
 90
     1152
 91
        3
280
     0
281
     0
  0
CLASS
  1
DICTIONARYVAR
  2
AcDbDictionaryVar
  3
ObjectDBX Classes
 90
        0
 91
        8
280
     0
281
     0
  0
ENDSEC
  0
SECTION
  2
TABLES
  0
TABLE
  2
VPORT
  5
8
330
0
100
AcDbSymbolTable
 70
     1
  0
VPORT
  5
7D
330
8
100
AcDbSymbolTableRecord
100
AcDbViewportTableRecord
  2
*Active
 70
     0
 10
0.0
 20
0.0
 11
1.0
 21
1.0
 12
1030.000004796311
 22
625.0000029103829
 13
0.0
 23
0.0
 14
1.0
 24
1.0
 15
0.0
 25
0.0
 16
0.0
 26
0.0
 36
1.0
 17
0.0
 27
0.0
 37
0.0
 40
1264.811967351437
 41
2.476377952755905
 42
50.0
 43
0.0
 44
0.0
 50
0.0
 51
0.0
 71
     0
 72
   100
 73
     1
 74
     1
 75
     0
 76
     0
 77
     0
 78
     0
281
     0
 65
     1
110
0.0
120
0.0
130
0.0
111
1.0
121
0.0
131
0.0
112
0.0
122
1.0
132
0.0
 79
     0
146
0.0
  0
ENDTAB
  0
TABLE
  2
LTYPE
  5
5
330
0
100
AcDbSymbolTable
 70
     2
  0
LTYPE
  5
65
330
5
100
AcDbSymbolTableRecord
100
AcDbLinetypeTableRecord
  2
ByBlock
 70
     0
  3

 72
    65
 73
     0
 40
0.0
  0
LTYPE
  5
66
330
5
100
AcDbSymbolTableRecord
100
AcDbLinetypeTableRecord
  2
ByLayer
 70
     0
  3

 72
    65
 73
     0
 40
0.0
  0
LTYPE
  5
67
330
5
100
AcDbSymbolTableRecord
100
AcDbLinetypeTableRecord
  2
CONTINUOUS
 70
     0
  3
Solid line
 72
    65
 73
     0
 40
0.0
  0
ENDTAB
  0
TABLE
  2
LAYER
  5
2
330
0
100
AcDbSymbolTable
 70
     3
  0
LAYER
  5
5F
102
{ACAD_XDICTIONARY
360
649
102
}
330
2
100
AcDbSymbolTableRecord
100
AcDbLayerTableRecord
  2
0
 70
     0
 62
     7
  6
CONTINUOUS
370
    -3
390
F
  0
LAYER
  5
7A
102
{ACAD_XDICTIONARY
360
64B
102
}
330
2
100
AcDbSymbolTableRecord
100
AcDbLayerTableRecord
  2
LAYER1
 70
     0
 62
     1
  6
CONTINUOUS
370
    -3
390
F
  0
LAYER
  5
7B
102
{ACAD_XDICTIONARY
360
64D
102
}
330
2
100
AcDbSymbolTableRecord
100
AcDbLayerTableRecord
  2
LAYER2
 70
     0
 62
     1
  6
CONTINUOUS
370
    -3
390
F
  0
ENDTAB
  0
TABLE
  2
STYLE
  5
3
330
0
100
AcDbSymbolTable
 70
     2
  0
STYLE
  5
60
330
3
100
AcDbSymbolTableRecord
100
AcDbTextStyleTableRecord
  2
Standard
 70
     0
 40
0.0
 41
1.0
 50
0.0
 71
     0
 42
0.2
  3
txt
  4

  0
STYLE
  5
64
330
3
100
AcDbSymbolTableRecord
100
AcDbTextStyleTableRecord
  2
Annotative
 70
     0
 40
0.0
 41
1.0
 50
0.0
 71
     0
 42
0.2
  3
txt
  4

1001
AcadAnnotative
1000
AnnotativeData
1002
{
1070
     1
1070
     1
1002
}
  0
ENDTAB
  0
TABLE
  2
VIEW
  5
6
330
0
100
AcDbSymbolTable
 70
     0
  0
ENDTAB
  0
TABLE
  2
UCS
  5
7
330
0
100
AcDbSymbolTable
 70
     0
  0
ENDTAB
  0
TABLE
  2
APPID
  5
9
330
0
100
AcDbSymbolTable
 70
     4
  0
APPID
  5
61
330
9
100
AcDbSymbolTableRecord
100
AcDbRegAppTableRecord
  2
ACAD
 70
     0
  0
APPID
  5
68
330
9
100
AcDbSymbolTableRecord
100
AcDbRegAppTableRecord
  2
AcadAnnotative
 70
     0
  0
APPID
  5
642
330
9
100
AcDbSymbolTableRecord
100
AcDbRegAppTableRecord
  2
ACAD_EXEMPT_FROM_CAD_STANDARDS
 70
     0
  0
APPID
  5
6E4
330
9
100
AcDbSymbolTableRecord
100
AcDbRegAppTableRecord
  2
ACAD_MLEADERVER
 70
     0
  0
ENDTAB
  0
TABLE
  2
DIMSTYLE
  5
A
330
0
100
AcDbSymbolTable
 70
     3
100
AcDbDimStyleTable
 71
     1
340
62
  0
DIMSTYLE
105
62
330
A
100
AcDbSymbolTableRecord
100
AcDbDimStyleTableRecord
  2
Standard
 70
     0
340
60
  0
DIMSTYLE
105
63
330
A
100
AcDbSymbolTableRecord
100
AcDbDimStyleTableRecord
  2
Annotative
 70
     0
340
60
1001
AcadAnnotative
1000
AnnotativeData
1002
{
1070
     1
1070
     1
1002
}
  0
ENDTAB
  0
TABLE
  2
BLOCK_RECORD
  5
1
330
0
100
AcDbSymbolTable
 70
     1
  0
BLOCK_RECORD
  5
76
330
1
100
AcDbSymbolTableRecord
100
AcDbBlockTableRecord
  2
*Model_Space
340
79
  0
BLOCK_RECORD
  5
72
330
1
100
AcDbSymbolTableRecord
100
AcDbBlockTableRecord
  2
*Paper_Space
340
75
  0
ENDTAB
  0
ENDSEC
  0
SECTION
  2
BLOCKS
  0
BLOCK
  5
77
330
76
100
AcDbEntity
  8
0
100
AcDbBlockBegin
  2
*Model_Space
 70
     0
 10
0.0
 20
0.0
 30
0.0
  3
*Model_Space
  1

  0
ENDBLK
  5
78
330
76
100
AcDbEntity
  8
0
100
AcDbBlockEnd
  0
BLOCK
  5
73
330
72
100
AcDbEntity
 67
     1
  8
0
100
AcDbBlockBegin
  2
*Paper_Space
 70
     0
 10
0.0
 20
0.0
 30
0.0
  3
*Paper_Space
  1

  0
ENDBLK
  5
74
330
72
100
AcDbEntity
 67
     1
  8
0
100
AcDbBlockEnd
  0
ENDSEC
  0
SECTION
  2
ENTITIES
  0
LWPOLYLINE
  5
7E
330
76
100
AcDbEntity
  8
LAYER1
100
AcDbPolyline
 90
        4
 70
     1
 43
0.0
 10
410.0
 20
1087.0
 10
512.0
 20
1087.0
 10
512.0
 20
1189.0
 10
410.0
 20
1189.0
  0
LWPOLYLINE
  5
84
330
76
100
AcDbEntity
  8
LAYER1
100
AcDbPolyline
 90
        4
 70
     1
 43
0.0
 10
610.0
 20
1087.0
 10
712.0
 20
1087.0
 10
712.0
 20
1189.0
 10
610.0
 20
1189.0
  0
LWPOLYLINE
  5
8A
330
76
100
AcDbEntity
  8
LAYER1
100
AcDbPolyline
 90
        4
 70
     1
 43
0.0
 10
810.0
 20
1087.0
 10
912.0
 20
1087.0
 10
912.0
 20
1189.0
 10
810.0
 20
1189.0
  0
LWPOLYLINE
  5
90
330
76
100
AcDbEntity
  8
LAYER1
100
AcDbPolyline
 90
        4
 70
     1
 43
0.0
 10
1010.0
 20
1087.0
 10
1112.0
 20
1087.0
 10
1112.0
 20
1189.0
 10
1010.0
 20
1189.0
  0
LWPOLYLINE
  5
96
330
76
100
AcDbEntity
  8
LAYER1
100
AcDbPolyline
 90
        4
 70
     1
 43
0.0
 10
1210.0
 20
1087.0
 10
1312.0
 20
1087.0
 10
1312.0
 20
1189.0
 10
1210.0
 20
1189.0
  0
LWPOLYLINE
  5
9C
330
76
100
AcDbEntity
  8
LAYER1
100
AcDbPolyline
 90
        4
 70
     1
 43
0.0
 10
1410.0
 20
1087.0
 10
1512.0
 20
1087.0
 10
1512.0
 20
1189.0
 10
1410.0
 20
1189.0
  0
LWPOLYLINE
  5
A2
330
76
100
AcDbEntity
  8
LAYER1
100
AcDbPolyline
 90
        4
 70
     1
 43
0.0
 10
1610.0
 20
1087.0
 10
1712.0
 20
1087.0
 10
1712.0
 20
1189.0
 10
1610.0
 20
1189.0
  0
LWPOLYLINE
  5
A8
330
76
100
AcDbEntity
  8
LAYER1
100
AcDbPolyline
 90
        8
 70
     1
 43
0.0
 10
91.69999999999999
 20
836.0
 10
91.69999999999999
 20
812.0
 10
56.7
 20
812.0
 10
56.7
 20
688.0
 10
151.2
 20
688.0
 10
151.2
 20
736.0
 10
191.6999999999999
 20
736.0
 10
191.6999999999999
 20
836.0
  0
LWPOLYLINE
  5
B2
330
76
100
AcDbEntity
  8
LAYER1
100
AcDbPolyline
 90
        8
 70
     1
 43
0.0
 10
1969.0
 20
811.2
 10
1969.0
 20
835.2
 10
1869.0
 20
835.2
 10
1869.0
 20
735.2
 10
1909.5
 20
735.2
 10
1909.5
 20
687.2
 10
2004.0
 20
687.2
 10
2004.0
 20
811.2
  0
LWPOLYLINE
  5
BC
330
76
100
AcDbEntity
  8
LAYER1
100
AcDbPolyline
 90
        4
 70
     1
 43
0.0
 10
151.2
 20
588.0
 10
151.2
 20
640.0
 10
56.7
 20
640.0
 10
56.7
 20
588.0
  0
LWPOLYLINE
  5
C2
330
76
100
AcDbEntity
  8
LAYER1
100
AcDbPolyline
 90
        4
 70
     1
 43
0.0
 10
2004.0
 20
587.2
 10
2004.0
 20
639.2
 10
1909.5
 20
639.2
 10
1909.5
 20
587.2
  0
LWPOLYLINE
  5
C8
330
76
100
AcDbEntity
  8
LAYER1
100
AcDbPolyline
 90
        8
 70
     1
 43
0.0
 10
91.69999999999999
 20
416.0
 10
91.69999999999999
 20
392.0
 10
191.6999999999999
 20
392.0
 10
191.6999999999999
 20
492.0
 10
151.2
 20
492.0
 10
151.2
 20
540.0
 10
56.7
 20
540.0
 10
56.7
 20
416.0
  0
LWPOLYLINE
  5
D2
330
76
100
AcDbEntity
  8
LAYER1
100
AcDbPolyline
 90
        8
 70
     1
 43
0.0
 10
1969.0
 20
391.2
 10
1969.0
 20
415.2
 10
2004.0
 20
415.2
 10
2004.0
 20
539.2
 10
1909.5
 20
539.2
 10
1909.5
 20
491.1999999999999
 10
1869.0
 20
491.1999999999999
 10
1869.0
 20
391.2
  0
LWPOLYLINE
  5
DC
330
76
100
AcDbEntity
  8
LAYER1
100
AcDbPolyline
 90
        4
 70
     1
 43
0.0
 10
469.0
 20
61.5
 10
571.0
 20
61.5
 10
571.0
 20
163.5
 10
469.0
 20
163.5
  0
LWPOLYLINE
  5
E2
330
76
100
AcDbEntity
  8
LAYER1
100
AcDbPolyline
 90
        4
 70
     1
 43
0.0
 10
669.0
 20
61.5
 10
771.0
 20
61.5
 10
771.0
 20
163.5
 10
669.0
 20
163.5
  0
LWPOLYLINE
  5
E8
330
76
100
AcDbEntity
  8
LAYER1
100
AcDbPolyline
 90
        4
 70
     1
 43
0.0
 10
869.0
 20
61.5
 10
971.0
 20
61.5
 10
971.0
 20
163.5
 10
869.0
 20
163.5
  0
LWPOLYLINE
  5
EE
330
76
100
AcDbEntity
  8
LAYER1
100
AcDbPolyline
 90
        4
 70
     1
 43
0.0
 10
1069.0
 20
61.5
 10
1171.0
 20
61.5
 10
1171.0
 20
163.5
 10
1069.0
 20
163.5
  0
LWPOLYLINE
  5
F4
330
76
100
AcDbEntity
  8
LAYER1
100
AcDbPolyline
 90
        4
 70
     1
 43
0.0
 10
1269.0
 20
61.5
 10
1371.0
 20
61.5
 10
1371.0
 20
163.5
 10
1269.0
 20
163.5
  0
LWPOLYLINE
  5
FA
330
76
100
AcDbEntity
  8
LAYER1
100
AcDbPolyline
 90
        4
 70
     1
 43
0.0
 10
1469.0
 20
61.5
 10
1571.0
 20
61.5
 10
1571.0
 20
163.5
 10
1469.0
 20
163.5
  0
LWPOLYLINE
  5
100
330
76
100
AcDbEntity
  8
LAYER1
100
AcDbPolyline
 90
        4
 70
     1
 43
0.0
 10
1669.0
 20
61.5
 10
1771.0
 20
61.5
 10
1771.0
 20
163.5
 10
1669.0
 20
163.5
  0
LWPOLYLINE
  5
106
330
76
100
AcDbEntity
  8
LAYER2
100
AcDbPolyline
 90
       12
 70
     1
 43
0.0
 10
1737.1
 20
1181.4
 10
1738.7
 20
1183.0
 10
1762.7
 20
1183.0
 10
1764.3
 20
1181.4
 10
1764.3
 20
1175.0
 10
1770.7
 20
1175.0
 10
1770.7
 20
1184.6
 10
1765.9
 20
1189.4
 10
1735.5
 20
1189.4
 10
1730.7
 20
1184.6
 10
1730.7
 20
1175.0
 10
1737.1
 20
1175.0
  0
LWPOLYLINE
  5
114
330
76
100
AcDbEntity
  8
LAYER2
100
AcDbPolyline
 90
       12
 70
     1
 43
0.0
 10
359.6
 20
1177.8
 10
361.2
 20
1179.4
 10
385.2
 20
1179.4
 10
386.8
 20
1177.8
 10
386.8
 20
1171.4
 10
393.2
 20
1171.4
 10
393.2
 20
1181.0
 10
388.4
 20
1185.8
 10
358.0
 20
1185.8
 10
353.2
 20
1181.0
 10
353.2
 20
1171.4
 10
359.6
 20
1171.4
  0
LWPOLYLINE
  5
122
330
76
100
AcDbEntity
  8
LAYER2
100
AcDbPolyline
 90
       10
 70
     1
 43
0.0
 10
567.9
 20
1175.4
 10
567.9
 20
1177.8
 10
595.1
 20
1177.8
 10
595.1
 20
1169.0
 10
601.5
 20
1169.0
 10
601.5
 20
1193.0
 10
595.1
 20
1193.0
 10
595.1
 20
1184.2
 10
561.5
 20
1184.2
 10
561.5
 20
1175.4
  0
LWPOLYLINE
  5
12E
330
76
100
AcDbEntity
  8
LAYER2
100
AcDbPolyline
 90
       12
 70
     1
 43
0.0
 10
952.5999999999999
 20
1174.2
 10
954.1999999999999
 20
1175.8
 10
978.2
 20
1175.8
 10
979.8
 20
1174.2
 10
979.8
 20
1167.8
 10
986.2
 20
1167.8
 10
986.2
 20
1177.4
 10
981.4
 20
1182.2
 10
951.0
 20
1182.2
 10
946.2000000000001
 20
1177.4
 10
946.2000000000001
 20
1167.8
 10
952.5999999999999
 20
1167.8
  0
LWPOLYLINE
  5
13C
330
76
100
AcDbEntity
  8
LAYER2
100
AcDbPolyline
 90
       18
 70
     1
 43
0.0
 10
774.5
 20
1172.8
 10
772.9
 20
1174.4
 10
772.9
 20
1190.4
 10
774.5
 20
1192.0
 10
777.7000000000001
 20
1192.0
 10
796.9
 20
1166.4
 10
806.4999999999999
 20
1166.4
 10
806.4999999999999
 20
1198.4
 10
800.1000000000001
 20
1198.4
 10
800.1000000000001
 20
1172.8
 10
792.1
 20
1183.5
 10
780.9
 20
1198.4
 10
771.3
 20
1198.4
 10
766.5
 20
1193.6
 10
766.5
 20
1171.2
 10
771.3
 20
1166.4
 10
778.5
 20
1166.4
 10
778.5
 20
1172.8
  0
LWPOLYLINE
  5
150
330
76
100
AcDbEntity
  8
LAYER2
100
AcDbPolyline
 90
       29
 70
     1
 43
0.0
 10
1330.5
 20
1162.8
 10
1328.9
 20
1164.4
 10
1328.9
 20
1180.4
 10
1330.5
 20
1182.0
 10
1337.7
 20
1182.0
 10
1339.3
 20
1180.4
 10
1339.3
 20
1166.8
 10
1345.7
 20
1166.8
 10
1345.7
 20
1180.4
 10
1347.3
 20
1182.0
 10
1354.5
 20
1182.0
 10
1356.1
 20
1180.4
 10
1356.1
 20
1164.4
 10
1354.5
 20
1162.8
 10
1350.5
 20
1162.8
 10
1350.5
 20
1156.4
 10
1357.7
 20
1156.4
 10
1362.5
 20
1161.2
 10
1362.5
 20
1183.6
 10
1357.7
 20
1188.4
 10
1344.9
 20
1188.4
 10
1342.5
 20
1186.0
 10
1340.1
 20
1188.4
 10
1327.3
 20
1188.4
 10
1322.5
 20
1183.6
 10
1322.5
 20
1161.2
 10
1327.3
 20
1156.4
 10
1334.5
 20
1156.4
 10
1334.5
 20
1162.8
  0
LWPOLYLINE
  5
16F
330
76
100
AcDbEntity
  8
LAYER2
100
AcDbPolyline
 90
        8
 70
     1
 43
0.0
 10
1770.8
 20
1169.9
 10
1764.4
 20
1169.9
 10
1764.4
 20
1161.9
 10
1737.2
 20
1161.9
 10
1737.2
 20
1169.9
 10
1730.8
 20
1169.9
 10
1730.8
 20
1155.5
 10
1770.8
 20
1155.5
  0
LWPOLYLINE
  5
179
330
76
100
AcDbEntity
  8
LAYER2
100
AcDbPolyline
 90
       29
 70
     1
 43
0.0
 10
1528.6
 20
1159.2
 10
1527.0
 20
1160.8
 10
1527.0
 20
1176.8
 10
1528.6
 20
1178.4
 10
1535.8
 20
1178.4
 10
1537.4
 20
1176.8
 10
1537.4
 20
1163.2
 10
1543.8
 20
1163.2
 10
1543.8
 20
1176.8
 10
1545.4
 20
1178.4
 10
1552.6
 20
1178.4
 10
1554.2
 20
1176.8
 10
1554.2
 20
1160.8
 10
1552.6
 20
1159.2
 10
1548.6
 20
1159.2
 10
1548.6
 20
1152.8
 10
1555.8
 20
1152.8
 10
1560.6
 20
1157.6
 10
1560.6
 20
1180.0
 10
1555.8
 20
1184.8
 10
1543.0
 20
1184.8
 10
1540.6
 20
1182.4
 10
1538.2
 20
1184.8
 10
1525.4
 20
1184.8
 10
1520.6
 20
1180.0
 10
1520.6
 20
1157.6
 10
1525.4
 20
1152.8
 10
1532.6
 20
1152.8
 10
1532.6
 20
1159.2
  0
LWPOLYLINE
  5
198
330
76
100
AcDbEntity
  8
LAYER2
100
AcDbPolyline
 90
        8
 70
     1
 43
0.0
 10
393.3
 20
1166.3
 10
386.9
 20
1166.3
 10
386.9
 20
1158.3
 10
359.7
 20
1158.3
 10
359.7
 20
1166.3
 10
353.3
 20
1166.3
 10
353.3
 20
1151.9
 10
393.3
 20
1151.9
  0
LWPOLYLINE
  5
1A2
330
76
100
AcDbEntity
  8
LAYER2
100
AcDbPolyline
 90
        8
 70
     1
 43
0.0
 10
986.2999999999999
 20
1162.7
 10
979.8999999999999
 20
1162.7
 10
979.8999999999999
 20
1154.7
 10
952.7000000000001
 20
1154.7
 10
952.7000000000001
 20
1162.7
 10
946.2999999999999
 20
1162.7
 10
946.2999999999999
 20
1148.3
 10
986.2999999999999
 20
1148.3
  0
LWPOLYLINE
  5
1AC
330
76
100
AcDbEntity
  8
LAYER2
100
AcDbPolyline
 90
       12
 70
     1
 43
0.0
 10
1527.0
 20
1138.8
 10
1528.6
 20
1140.4
 10
1552.6
 20
1140.4
 10
1554.2
 20
1138.8
 10
1554.2
 20
1132.4
 10
1560.6
 20
1132.4
 10
1560.6
 20
1142.0
 10
1555.8
 20
1146.8
 10
1525.4
 20
1146.8
 10
1520.6
 20
1142.0
 10
1520.6
 20
1132.4
 10
1527.0
 20
1132.4
  0
LWPOLYLINE
  5
1BA
330
76
100
AcDbEntity
  8
LAYER2
100
AcDbPolyline
 90
       22
 70
     1
 43
0.0
 10
798.5
 20
1152.4
 10
800.1000000000001
 20
1150.8
 10
800.1000000000001
 20
1137.4
 10
798.5
 20
1135.8
 10
774.5
 20
1135.8
 10
772.9
 20
1137.4
 10
772.9
 20
1150.4
 10
774.5
 20
1152.0
 10
778.5
 20
1152.0
 10
778.5
 20
1158.4
 10
771.3
 20
1158.4
 10
766.5
 20
1153.6
 10
766.5
 20
1134.2
 10
771.3
 20
1129.4
 10
801.7000000000001
 20
1129.4
 10
806.4999999999999
 20
1134.2
 10
806.4999999999999
 20
1153.6
 10
801.7000000000001
 20
1158.4
 10
786.5
 20
1158.4
 10
786.5
 20
1148.8
 10
792.9
 20
1148.8
 10
792.9
 20
1152.4
  0
LWPOLYLINE
  5
1D2
330
76
100
AcDbEntity
  8
LAYER2
100
AcDbPolyline
 90
       22
 70
     1
 43
0.0
 10
593.5
 20
1155.0
 10
595.1
 20
1153.4
 10
595.1
 20
1137.0
 10
593.5
 20
1135.4
 10
569.5
 20
1135.4
 10
567.9
 20
1137.0
 10
567.9
 20
1153.0
 10
569.5
 20
1154.6
 10
573.5
 20
1154.6
 10
573.5
 20
1161.0
 10
566.2999999999999
 20
1161.0
 10
561.5
 20
1156.2
 10
561.5
 20
1133.8
 10
566.2999999999999
 20
1129.0
 10
596.7
 20
1129.0
 10
601.5
 20
1133.8
 10
601.5
 20
1156.2
 10
596.7
 20
1161.0
 10
581.5
 20
1161.0
 10
581.5
 20
1151.4
 10
587.8999999999999
 20
1151.4
 10
587.8999999999999
 20
1155.0
  0
LWPOLYLINE
  5
1EA
330
76
100
AcDbEntity
  8
LAYER2
100
AcDbPolyline
 90
       22
 70
     1
 43
0.0
 10
1354.5
 20
1142.4
 10
1356.1
 20
1140.8
 10
1356.1
 20
1124.4
 10
1354.5
 20
1122.8
 10
1330.5
 20
1122.8
 10
1328.9
 20
1124.4
 10
1328.9
 20
1140.4
 10
1330.5
 20
1142.0
 10
1334.5
 20
1142.0
 10
1334.5
 20
1148.4
 10
1327.3
 20
1148.4
 10
1322.5
 20
1143.6
 10
1322.5
 20
1121.2
 10
1327.3
 20
1116.4
 10
1357.7
 20
1116.4
 10
1362.5
 20
1121.2
 10
1362.5
 20
1143.6
 10
1357.7
 20
1148.4
 10
1342.5
 20
1148.4
 10
1342.5
 20
1138.8
 10
1348.9
 20
1138.8
 10
1348.9
 20
1142.4
  0
LWPOLYLINE
  5
202
330
76
100
AcDbEntity
  8
LAYER2
100
AcDbPolyline
 90
       10
 70
     1
 43
0.0
 10
1770.8
 20
1143.5
 10
1770.8
 20
1147.5
 10
1730.8
 20
1147.5
 10
1730.8
 20
1141.1
 10
1757.2
 20
1141.1
 10
1730.8
 20
1119.5
 10
1730.8
 20
1115.5
 10
1770.8
 20
1115.5
 10
1770.8
 20
1121.9
 10
1744.4
 20
1121.9
  0
LWPOLYLINE
  5
20E
330
76
100
AcDbEntity
  8
LAYER2
100
AcDbPolyline
 90
        8
 70
     1
 43
0.0
 10
1560.6
 20
1127.2
 10
1554.2
 20
1127.2
 10
1554.2
 20
1119.2
 10
1527.0
 20
1119.2
 10
1527.0
 20
1127.2
 10
1520.6
 20
1127.2
 10
1520.6
 20
1112.8
 10
1560.6
 20
1112.8
  0
LWPOLYLINE
  5
218
330
76
100
AcDbEntity
  8
LAYER2
100
AcDbPolyline
 90
       10
 70
     1
 43
0.0
 10
393.3
 20
1139.9
 10
393.3
 20
1143.9
 10
353.3
 20
1143.9
 10
353.3
 20
1137.5
 10
379.7
 20
1137.5
 10
353.3
 20
1115.9
 10
353.3
 20
1111.9
 10
393.3
 20
1111.9
 10
393.3
 20
1118.3
 10
366.9
 20
1118.3
  0
LWPOLYLINE
  5
224
330
76
100
AcDbEntity
  8
LAYER2
100
AcDbPolyline
 90
       10
 70
     1
 43
0.0
 10
986.2999999999999
 20
1136.3
 10
986.2999999999999
 20
1140.3
 10
946.2999999999999
 20
1140.3
 10
946.2999999999999
 20
1133.9
 10
972.7
 20
1133.9
 10
946.2999999999999
 20
1112.3
 10
946.2999999999999
 20
1108.3
 10
986.2999999999999
 20
1108.3
 10
986.2999999999999
 20
1114.7
 10
959.9
 20
1114.7
  0
LWPOLYLINE
  5
230
330
76
100
AcDbEntity
  8
LAYER2
100
AcDbPolyline
 90
       10
 70
     1
 43
0.0
 10
561.5
 20
1121.0
 10
561.5
 20
1114.6
 10
582.2999999999999
 20
1114.6
 10
591.8999999999999
 20
1105.0
 10
582.2999999999999
 20
1095.4
 10
561.5
 20
1095.4
 10
561.5
 20
1089.0
 10
585.5
 20
1089.0
 10
601.5
 20
1105.0
 10
585.5
 20
1121.0
  0
LWPOLYLINE
  5
23C
330
76
100
AcDbEntity
  8
LAYER2
100
AcDbPolyline
 90
       10
 70
     1
 43
0.0
 10
766.5
 20
1121.0
 10
766.5
 20
1114.6
 10
787.2999999999999
 20
1114.6
 10
796.9
 20
1105.0
 10
787.2999999999999
 20
1095.4
 10
766.5
 20
1095.4
 10
766.5
 20
1089.0
 10
790.5
 20
1089.0
 10
806.4999999999999
 20
1105.0
 10
790.5
 20
1121.0
  0
LWPOLYLINE
  5
248
330
76
100
AcDbEntity
  8
LAYER2
100
AcDbPolyline
 90
       10
 70
     1
 43
0.0
 10
1322.5
 20
1108.4
 10
1322.5
 20
1102.0
 10
1343.3
 20
1102.0
 10
1352.9
 20
1092.4
 10
1343.3
 20
1082.8
 10
1322.5
 20
1082.8
 10
1322.5
 20
1076.4
 10
1346.5
 20
1076.4
 10
1362.5
 20
1092.4
 10
1346.5
 20
1108.4
  0
LWPOLYLINE
  5
254
330
76
100
AcDbEntity
  8
LAYER2
100
AcDbPolyline
 90
       22
 70
     1
 43
0.0
 10
1762.8
 20
1101.5
 10
1764.4
 20
1099.9
 10
1764.4
 20
1083.5
 10
1762.8
 20
1081.9
 10
1738.8
 20
1081.9
 10
1737.2
 20
1083.5
 10
1737.2
 20
1099.5
 10
1738.8
 20
1101.1
 10
1742.8
 20
1101.1
 10
1742.8
 20
1107.5
 10
1735.599999999999
 20
1107.5
 10
1730.8
 20
1102.7
 10
1730.8
 20
1080.3
 10
1735.599999999999
 20
1075.5
 10
1766.0
 20
1075.5
 10
1770.8
 20
1080.3
 10
1770.8
 20
1102.7
 10
1766.0
 20
1107.5
 10
1750.8
 20
1107.5
 10
1750.8
 20
1097.9
 10
1757.2
 20
1097.9
 10
1757.2
 20
1101.5
  0
LWPOLYLINE
  5
26C
330
76
100
AcDbEntity
  8
LAYER2
100
AcDbPolyline
 90
       10
 70
     1
 43
0.0
 10
1520.6
 20
1106.8
 10
1520.6
 20
1100.4
 10
1541.4
 20
1100.4
 10
1551.0
 20
1090.8
 10
1541.4
 20
1081.2
 10
1520.6
 20
1081.2
 10
1520.6
 20
1074.8
 10
1544.6
 20
1074.8
 10
1560.6
 20
1090.8
 10
1544.6
 20
1106.8
  0
LWPOLYLINE
  5
278
330
76
100
AcDbEntity
  8
LAYER2
100
AcDbPolyline
 90
       22
 70
     1
 43
0.0
 10
385.3
 20
1097.9
 10
386.9
 20
1096.3
 10
386.9
 20
1079.9
 10
385.3
 20
1078.3
 10
361.3
 20
1078.3
 10
359.7
 20
1079.9
 10
359.7
 20
1095.9
 10
361.3
 20
1097.5
 10
365.3
 20
1097.5
 10
365.3
 20
1103.9
 10
358.1
 20
1103.9
 10
353.3
 20
1099.1
 10
353.3
 20
1076.7
 10
358.1
 20
1071.9
 10
388.5
 20
1071.9
 10
393.3
 20
1076.7
 10
393.3
 20
1099.1
 10
388.5
 20
1103.9
 10
373.3
 20
1103.9
 10
373.3
 20
1094.3
 10
379.7
 20
1094.3
 10
379.7
 20
1097.9
  0
LWPOLYLINE
  5
290
330
76
100
AcDbEntity
  8
LAYER2
100
AcDbPolyline
 90
       22
 70
     1
 43
0.0
 10
978.2999999999999
 20
1094.3
 10
979.8999999999999
 20
1092.7
 10
979.8999999999999
 20
1076.3
 10
978.2999999999999
 20
1074.7
 10
954.2999999999999
 20
1074.7
 10
952.7000000000001
 20
1076.3
 10
952.7000000000001
 20
1092.3
 10
954.2999999999999
 20
1093.9
 10
958.3
 20
1093.9
 10
958.3
 20
1100.3
 10
951.1000000000001
 20
1100.3
 10
946.2999999999999
 20
1095.5
 10
946.2999999999999
 20
1073.1
 10
951.1000000000001
 20
1068.3
 10
981.4999999999999
 20
1068.3
 10
986.2999999999999
 20
1073.1
 10
986.2999999999999
 20
1095.5
 10
981.4999999999999
 20
1100.3
 10
966.3
 20
1100.3
 10
966.3
 20
1090.7
 10
972.7
 20
1090.7
 10
972.7
 20
1094.3
  0
LWPOLYLINE
  5
2A8
330
76
100
AcDbEntity
  8
LAYER2
100
AcDbPolyline
 90
       21
 70
     1
 43
0.0
 10
1894.8
 20
1063.7
 10
1896.3
 20
1065.2
 10
1901.1
 20
1065.2
 10
1902.6
 20
1063.7
 10
1902.6
 20
1059.2
 10
1907.4
 20
1059.2
 10
1907.4
 20
1063.7
 10
1908.9
 20
1065.2
 10
1913.7
 20
1065.2
 10
1915.2
 20
1063.7
 10
1915.2
 20
1059.2
 10
1920.0
 20
1059.2
 10
1920.0
 20
1066.4
 10
1916.4
 20
1070.0
 10
1906.8
 20
1070.0
 10
1905.0
 20
1068.2
 10
1903.2
 20
1070.0
 10
1893.6
 20
1070.0
 10
1890.0
 20
1066.4
 10
1890.0
 20
1059.2
 10
1894.8
 20
1059.2
  0
LWPOLYLINE
  5
2BF
330
76
100
AcDbEntity
  8
LAYER2
100
AcDbPolyline
 90
       29
 70
     1
 43
0.0
 10
1976.3
 20
1052.8
 10
1974.8
 20
1054.3
 10
1974.8
 20
1065.7
 10
1976.3
 20
1067.2
 10
1981.1
 20
1067.2
 10
1982.6
 20
1065.7
 10
1982.6
 20
1055.8
 10
1987.4
 20
1055.8
 10
1987.4
 20
1065.7
 10
1988.9
 20
1067.2
 10
1993.7
 20
1067.2
 10
1995.2
 20
1065.7
 10
1995.2
 20
1054.3
 10
1993.7
 20
1052.8
 10
1991.0
 20
1052.8
 10
1991.0
 20
1048.0
 10
1996.4
 20
1048.0
 10
2000.0
 20
1051.6
 10
2000.0
 20
1068.4
 10
1996.4
 20
1072.0
 10
1986.8
 20
1072.0
 10
1985.0
 20
1070.2
 10
1983.2
 20
1072.0
 10
1973.6
 20
1072.0
 10
1970.0
 20
1068.4
 10
1970.0
 20
1051.6
 10
1973.6
 20
1048.0
 10
1979.0
 20
1048.0
 10
1979.0
 20
1052.8
  0
LWPOLYLINE
  5
2DE
330
76
100
AcDbEntity
  8
LAYER2
100
AcDbPolyline
 90
       21
 70
     1
 43
0.0
 10
1915.2
 20
1052.3
 10
1913.7
 20
1050.8
 10
1908.9
 20
1050.8
 10
1907.4
 20
1052.3
 10
1907.4
 20
1056.8
 10
1902.6
 20
1056.8
 10
1902.6
 20
1052.3
 10
1901.1
 20
1050.8
 10
1896.3
 20
1050.8
 10
1894.8
 20
1052.3
 10
1894.8
 20
1056.8
 10
1890.0
 20
1056.8
 10
1890.0
 20
1049.6
 10
1893.6
 20
1046.0
 10
1903.2
 20
1046.0
 10
1905.0
 20
1047.8
 10
1906.8
 20
1046.0
 10
1916.4
 20
1046.0
 10
1920.0
 20
1049.6
 10
1920.0
 20
1056.8
 10
1915.2
 20
1056.8
  0
LWPOLYLINE
  5
2F5
330
76
100
AcDbEntity
  8
LAYER2
100
AcDbPolyline
 90
       21
 70
     1
 43
0.0
 10
1974.8
 20
1035.7
 10
1976.3
 20
1037.2
 10
1981.1
 20
1037.2
 10
1982.6
 20
1035.7
 10
1982.6
 20
1031.2
 10
1987.4
 20
1031.2
 10
1987.4
 20
1035.7
 10
1988.9
 20
1037.2
 10
1993.7
 20
1037.2
 10
1995.2
 20
1035.7
 10
1995.2
 20
1031.2
 10
2000.0
 20
1031.2
 10
2000.0
 20
1038.4
 10
1996.4
 20
1042.0
 10
1986.8
 20
1042.0
 10
1985.0
 20
1040.2
 10
1983.2
 20
1042.0
 10
1973.6
 20
1042.0
 10
1970.0
 20
1038.4
 10
1970.0
 20
1031.2
 10
1974.8
 20
1031.2
  0
LWPOLYLINE
  5
30C
330
76
100
AcDbEntity
  8
LAYER2
100
AcDbPolyline
 90
       12
 70
     1
 43
0.0
 10
1894.8
 20
1034.0
 10
1896.0
 20
1035.2
 10
1914.0
 20
1035.2
 10
1915.2
 20
1034.0
 10
1915.2
 20
1029.2
 10
1920.0
 20
1029.2
 10
1920.0
 20
1036.4
 10
1916.4
 20
1040.0
 10
1893.6
 20
1040.0
 10
1890.0
 20
1035.8
 10
1890.0
 20
1029.2
 10
1894.8
 20
1029.2
  0
LWPOLYLINE
  5
31A
330
76
100
AcDbEntity
  8
LAYER2
100
AcDbPolyline
 90
       12
 70
     1
 43
0.0
 10
1934.8
 20
1026.0
 10
1936.0
 20
1027.2
 10
1954.0
 20
1027.2
 10
1955.2
 20
1026.0
 10
1955.2
 20
1021.2
 10
1960.0
 20
1021.2
 10
1960.0
 20
1028.4
 10
1956.4
 20
1032.0
 10
1933.6
 20
1032.0
 10
1930.0
 20
1027.8
 10
1930.0
 20
1021.2
 10
1934.8
 20
1021.2
  0
LWPOLYLINE
  5
328
330
76
100
AcDbEntity
  8
LAYER2
100
AcDbPolyline
 90
       21
 70
     1
 43
0.0
 10
1995.2
 20
1024.3
 10
1993.7
 20
1022.8
 10
1988.9
 20
1022.8
 10
1987.4
 20
1024.3
 10
1987.4
 20
1028.8
 10
1982.6
 20
1028.8
 10
1982.6
 20
1024.3
 10
1981.1
 20
1022.8
 10
1976.3
 20
1022.8
 10
1974.8
 20
1024.3
 10
1974.8
 20
1028.8
 10
1970.0
 20
1028.8
 10
1970.0
 20
1021.6
 10
1973.6
 20
1018.0
 10
1983.2
 20
1018.0
 10
1985.0
 20
1019.8
 10
1986.8
 20
1018.0
 10
1996.4
 20
1018.0
 10
2000.0
 20
1021.6
 10
2000.0
 20
1028.8
 10
1995.2
 20
1028.8
  0
LWPOLYLINE
  5
33F
330
76
100
AcDbEntity
  8
LAYER2
100
AcDbPolyline
 90
       12
 70
     1
 43
0.0
 10
1915.2
 20
1022.0
 10
1914.0
 20
1020.8
 10
1896.0
 20
1020.8
 10
1894.8
 20
1022.0
 10
1894.8
 20
1026.8
 10
1890.0
 20
1026.8
 10
1890.0
 20
1019.6
 10
1893.6
 20
1016.0
 10
1916.4
 20
1016.0
 10
1920.0
 20
1019.6
 10
1920.0
 20
1026.8
 10
1915.2
 20
1026.8
  0
LWPOLYLINE
  5
34D
330
76
100
AcDbEntity
  8
LAYER2
100
AcDbPolyline
 90
       12
 70
     1
 43
0.0
 10
1955.2
 20
1014.0
 10
1954.0
 20
1012.8
 10
1936.0
 20
1012.8
 10
1934.8
 20
1014.0
 10
1934.8
 20
1018.8
 10
1930.0
 20
1018.8
 10
1930.0
 20
1011.6
 10
1933.6
 20
1008.0
 10
1956.4
 20
1008.0
 10
1960.0
 20
1011.6
 10
1960.0
 20
1018.8
 10
1955.2
 20
1018.8
  0
LWPOLYLINE
  5
35B
330
76
100
AcDbEntity
  8
LAYER2
100
AcDbPolyline
 90
       12
 70
     1
 43
0.0
 10
1894.8
 20
1004.0
 10
1896.0
 20
1005.2
 10
1914.0
 20
1005.2
 10
1915.2
 20
1004.0
 10
1915.2
 20
999.2
 10
1920.0
 20
999.2
 10
1920.0
 20
1006.4
 10
1916.4
 20
1010.0
 10
1893.6
 20
1010.0
 10
1890.0
 20
1005.8
 10
1890.0
 20
999.2
 10
1894.8
 20
999.2
  0
LWPOLYLINE
  5
369
330
76
100
AcDbEntity
  8
LAYER2
100
AcDbPolyline
 90
       10
 70
     1
 43
0.0
 10
1974.8
 20
998.7999999999999
 10
1974.8
 20
1000.6
 10
1995.2
 20
1000.6
 10
1995.2
 20
994.0
 10
2000.0
 20
994.0
 10
2000.0
 20
1012.0
 10
1995.2
 20
1012.0
 10
1995.2
 20
1005.4
 10
1970.0
 20
1005.4
 10
1970.0
 20
998.7999999999999
  0
LWPOLYLINE
  5
375
330
76
100
AcDbEntity
  8
LAYER2
100
AcDbPolyline
 90
       12
 70
     1
 43
0.0
 10
1915.2
 20
992.0
 10
1914.0
 20
990.7999999999999
 10
1896.0
 20
990.7999999999999
 10
1894.8
 20
992.0
 10
1894.8
 20
996.7999999999999
 10
1890.0
 20
996.7999999999999
 10
1890.0
 20
989.6
 10
1893.6
 20
986.0
 10
1916.4
 20
986.0
 10
1920.0
 20
989.6
 10
1920.0
 20
996.7999999999999
 10
1915.2
 20
996.7999999999999
  0
LWPOLYLINE
  5
383
330
76
100
AcDbEntity
  8
LAYER2
100
AcDbPolyline
 90
       10
 70
     1
 43
0.0
 10
1934.8
 20
988.7999999999999
 10
1934.8
 20
990.6
 10
1955.2
 20
990.6
 10
1955.2
 20
984.0
 10
1960.0
 20
984.0
 10
1960.0
 20
1002.0
 10
1955.2
 20
1002.0
 10
1955.2
 20
995.4
 10
1930.0
 20
995.4
 10
1930.0
 20
988.7999999999999
  0
LWPOLYLINE
  5
38F
330
76
100
AcDbEntity
  8
LAYER2
100
AcDbPolyline
 90
       29
 70
     1
 43
0.0
 10
1976.3
 20
968.8
 10
1974.8
 20
970.2999999999999
 10
1974.8
 20
981.7
 10
1976.3
 20
983.2
 10
1981.1
 20
983.2
 10
1982.6
 20
981.7
 10
1982.6
 20
971.7999999999999
 10
1987.4
 20
971.7999999999999
 10
1987.4
 20
981.7
 10
1988.9
 20
983.2
 10
1993.7
 20
983.2
 10
1995.2
 20
981.7
 10
1995.2
 20
970.2999999999999
 10
1993.7
 20
968.8
 10
1991.0
 20
968.8
 10
1991.0
 20
964.0
 10
1996.4
 20
964.0
 10
2000.0
 20
967.6
 10
2000.0
 20
984.3999999999999
 10
1996.4
 20
988.0
 10
1986.8
 20
988.0
 10
1985.0
 20
986.2
 10
1983.2
 20
988.0
 10
1973.6
 20
988.0
 10
1970.0
 20
984.3999999999999
 10
1970.0
 20
967.6
 10
1973.6
 20
964.0
 10
1979.0
 20
964.0
 10
1979.0
 20
968.8
  0
LWPOLYLINE
  5
3AE
330
76
100
AcDbEntity
  8
LAYER2
100
AcDbPolyline
 90
       10
 70
     1
 43
0.0
 10
1934.8
 20
964.7999999999999
 10
1934.8
 20
966.6
 10
1955.2
 20
966.6
 10
1955.2
 20
960.0
 10
1960.0
 20
960.0
 10
1960.0
 20
978.0
 10
1955.2
 20
978.0
 10
1955.2
 20
971.4
 10
1930.0
 20
971.4
 10
1930.0
 20
964.7999999999999
  0
LWPOLYLINE
  5
3BA
330
76
100
AcDbEntity
  8
LAYER2
100
AcDbPolyline
 90
       17
 70
     1
 43
0.0
 10
1896.0
 20
960.8
 10
1894.8
 20
962.0
 10
1894.8
 20
974.0
 10
1896.0
 20
975.2
 10
1898.4
 20
975.2
 10
1912.8
 20
956.0
 10
1920.0
 20
956.0
 10
1920.0
 20
980.0
 10
1915.2
 20
980.0
 10
1915.2
 20
960.8
 10
1900.8
 20
980.0
 10
1893.6
 20
980.0
 10
1890.0
 20
976.3999999999999
 10
1890.0
 20
959.6
 10
1893.6
 20
956.0
 10
1899.0
 20
956.0
 10
1899.0
 20
960.8
  0
LWPOLYLINE
  5
3CD
330
76
100
AcDbEntity
  8
LAYER2
100
AcDbPolyline
 90
       10
 70
     1
 43
0.0
 10
1974.8
 20
944.8
 10
1974.8
 20
946.6000000000001
 10
1995.2
 20
946.6000000000001
 10
1995.2
 20
940.0
 10
2000.0
 20
940.0
 10
2000.0
 20
958.0
 10
1995.2
 20
958.0
 10
1995.2
 20
951.3999999999999
 10
1970.0
 20
951.3999999999999
 10
1970.0
 20
944.8
  0
LWPOLYLINE
  5
3D9
330
76
100
AcDbEntity
  8
LAYER2
100
AcDbPolyline
 90
       12
 70
     1
 43
0.0
 10
1974.8
 20
928.0
 10
1976.0
 20
929.1999999999999
 10
1994.0
 20
929.1999999999999
 10
1995.2
 20
928.0
 10
1995.2
 20
923.2000000000001
 10
2000.0
 20
923.2000000000001
 10
2000.0
 20
930.4
 10
1996.4
 20
934.0
 10
1973.6
 20
934.0
 10
1970.0
 20
929.8
 10
1970.0
 20
923.2000000000001
 10
1974.8
 20
923.2000000000001
  0
LWPOLYLINE
  5
3E7
330
76
100
AcDbEntity
  8
LAYER2
100
AcDbPolyline
 90
       29
 70
     1
 43
0.0
 10
1936.3
 20
924.7999999999999
 10
1934.8
 20
926.2999999999999
 10
1934.8
 20
937.7
 10
1936.3
 20
939.2000000000001
 10
1941.1
 20
939.2000000000001
 10
1942.6
 20
937.7
 10
1942.6
 20
927.8
 10
1947.4
 20
927.8
 10
1947.4
 20
937.7
 10
1948.9
 20
939.2000000000001
 10
1953.7
 20
939.2000000000001
 10
1955.2
 20
937.7
 10
1955.2
 20
926.2999999999999
 10
1953.7
 20
924.7999999999999
 10
1951.0
 20
924.7999999999999
 10
1951.0
 20
920.0
 10
1956.4
 20
920.0
 10
1960.0
 20
923.6
 10
1960.0
 20
940.3999999999999
 10
1956.4
 20
944.0
 10
1946.8
 20
944.0
 10
1945.0
 20
942.2
 10
1943.2
 20
944.0
 10
1933.6
 20
944.0
 10
1930.0
 20
940.3999999999999
 10
1930.0
 20
923.6
 10
1933.6
 20
920.0
 10
1939.0
 20
920.0
 10
1939.0
 20
924.7999999999999
  0
LWPOLYLINE
  5
406
330
76
100
AcDbEntity
  8
LAYER2
100
AcDbPolyline
 90
       12
 70
     1
 43
0.0
 10
1995.2
 20
916.0
 10
1994.0
 20
914.7999999999999
 10
1976.0
 20
914.7999999999999
 10
1974.8
 20
916.0
 10
1974.8
 20
920.8
 10
1970.0
 20
920.8
 10
1970.0
 20
913.6000000000001
 10
1973.6
 20
910.0
 10
1996.4
 20
910.0
 10
2000.0
 20
913.6000000000001
 10
2000.0
 20
920.8
 10
1995.2
 20
920.8
  0
LWPOLYLINE
  5
414
330
76
100
AcDbEntity
  8
LAYER2
100
AcDbPolyline
 90
        6
 70
     1
 43
0.0
 10
1920.0
 20
932.0
 10
1915.2
 20
932.0
 10
1915.2
 20
912.8
 10
1890.0
 20
912.8
 10
1890.0
 20
908.0
 10
1920.0
 20
908.0
  0
LWPOLYLINE
  5
41C
330
76
100
AcDbEntity
  8
LAYER2
100
AcDbPolyline
 90
       12
 70
     1
 43
0.0
 10
1894.8
 20
896.0
 10
1896.0
 20
897.2000000000001
 10
1901.4
 20
897.2000000000001
 10
1902.6
 20
896.0
 10
1902.6
 20
891.2
 10
1907.4
 20
891.2
 10
1907.4
 20
898.3999999999999
 10
1903.8
 20
902.0
 10
1893.6
 20
902.0
 10
1890.0
 20
898.3999999999999
 10
1890.0
 20
891.2
 10
1894.8
 20
891.2
  0
LWPOLYLINE
  5
42A
330
76
100
AcDbEntity
  8
LAYER2
100
AcDbPolyline
 90
       18
 70
     1
 43
0.0
 10
1943.2
 20
900.5
 10
1943.2
 20
896.0
 10
1934.8
 20
899.6
 10
1934.8
 20
904.4
 10
1943.2
 20
908.0
 10
1943.2
 20
903.5
 10
1948.0
 20
903.5
 10
1948.0
 20
909.2
 10
1960.0
 20
909.2
 10
1960.0
 20
914.0
 10
1944.7
 20
914.0
 10
1930.0
 20
908.0
 10
1930.0
 20
896.0
 10
1944.7
 20
890.0
 10
1960.0
 20
890.0
 10
1960.0
 20
894.8
 10
1948.0
 20
894.8
 10
1948.0
 20
900.5
  0
LWPOLYLINE
  5
43E
330
76
100
AcDbEntity
  8
LAYER2
100
AcDbPolyline
 90
       10
 70
     1
 43
0.0
 10
2000.0
 20
880.0
 10
2000.0
 20
884.7999999999998
 10
1979.0
 20
884.7999999999998
 10
2000.0
 20
899.2
 10
2000.0
 20
904.0
 10
1970.0
 20
904.0
 10
1970.0
 20
899.2
 10
1991.0
 20
899.2
 10
1970.0
 20
884.7999999999998
 10
1970.0
 20
880.0
  0
LWPOLYLINE
  5
44A
330
76
100
AcDbEntity
  8
LAYER2
100
AcDbPolyline
 90
       12
 70
     1
 43
0.0
 10
1920.0
 20
878.0
 10
1920.0
 20
882.7999999999999
 10
1908.6
 20
882.7999999999999
 10
1920.0
 20
894.2
 10
1916.7
 20
898.0999999999999
 10
1907.4
 20
888.7999999999999
 10
1902.6
 20
888.7999999999999
 10
1902.6
 20
882.7999999999999
 10
1894.8
 20
882.7999999999999
 10
1894.8
 20
888.7999999999999
 10
1890.0
 20
888.7999999999999
 10
1890.0
 20
878.0
  0
LWPOLYLINE
  5
458
330
76
100
AcDbEntity
  8
LAYER2
100
AcDbPolyline
 90
       12
 70
     1
 43
0.0
 10
1934.8
 20
878.0
 10
1936.0
 20
879.1999999999999
 10
1941.4
 20
879.1999999999999
 10
1942.6
 20
878.0
 10
1942.6
 20
873.2000000000001
 10
1947.4
 20
873.2000000000001
 10
1947.4
 20
880.4
 10
1943.8
 20
884.0
 10
1933.6
 20
884.0
 10
1930.0
 20
880.4
 10
1930.0
 20
873.2000000000001
 10
1934.8
 20
873.2000000000001
  0
LWPOLYLINE
  5
466
330
76
100
AcDbEntity
  8
LAYER2
100
AcDbPolyline
 90
       12
 70
     1
 43
0.0
 10
1974.8
 20
868.0
 10
1976.0
 20
869.2
 10
1981.4
 20
869.2
 10
1982.6
 20
868.0
 10
1982.6
 20
863.2000000000001
 10
1987.4
 20
863.2000000000001
 10
1987.4
 20
870.4
 10
1983.8
 20
874.0
 10
1973.6
 20
874.0
 10
1970.0
 20
870.4
 10
1970.0
 20
863.2000000000001
 10
1974.8
 20
863.2000000000001
  0
LWPOLYLINE
  5
474
330
76
100
AcDbEntity
  8
LAYER2
100
AcDbPolyline
 90
       10
 70
     1
 43
0.0
 10
1960.0
 20
860.0
 10
1960.0
 20
864.7999999999999
 10
1947.4
 20
864.7999999999999
 10
1947.4
 20
870.8
 10
1942.6
 20
870.8
 10
1942.6
 20
864.7999999999999
 10
1934.8
 20
864.7999999999999
 10
1934.8
 20
870.8
 10
1930.0
 20
870.8
 10
1930.0
 20
860.0
  0
LWPOLYLINE
  5
480
330
76
100
AcDbEntity
  8
LAYER2
100
AcDbPolyline
 90
       10
 70
     1
 43
0.0
 10
2000.0
 20
850.0
 10
2000.0
 20
854.8
 10
1987.4
 20
854.8
 10
1987.4
 20
860.8
 10
1982.6
 20
860.8
 10
1982.6
 20
854.8
 10
1974.8
 20
854.8
 10
1974.8
 20
860.8
 10
1970.0
 20
860.8
 10
1970.0
 20
850.0
  0
LWPOLYLINE
  5
48C
330
76
100
AcDbEntity
  8
LAYER2
100
AcDbPolyline
 90
       12
 70
     1
 43
0.0
 10
1920.0
 20
848.0
 10
1920.0
 20
852.8
 10
1907.4
 20
852.8
 10
1907.4
 20
867.2
 10
1920.0
 20
867.2
 10
1920.0
 20
872.0
 10
1890.0
 20
872.0
 10
1890.0
 20
867.2
 10
1902.6
 20
867.2
 10
1902.6
 20
852.8
 10
1890.0
 20
852.8
 10
1890.0
 20
848.0
  0
LWPOLYLINE
  5
49A
330
76
100
AcDbEntity
  8
LAYER2
100
AcDbPolyline
 90
       12
 70
     1
 43
0.0
 10
1386.1
 20
174.7
 10
1387.7
 20
176.3
 10
1411.7
 20
176.3
 10
1413.3
 20
174.7
 10
1413.3
 20
168.3
 10
1419.7
 20
168.3
 10
1419.7
 20
177.9
 10
1414.9
 20
182.7
 10
1384.5
 20
182.7
 10
1379.7
 20
177.9
 10
1379.7
 20
168.3
 10
1386.1
 20
168.3
  0
LWPOLYLINE
  5
4A8
330
76
100
AcDbEntity
  8
LAYER2
100
AcDbPolyline
 90
       12
 70
     1
 43
0.0
 10
425.3
 20
168.9
 10
426.9
 20
170.5
 10
450.8999999999999
 20
170.5
 10
452.5
 20
168.9
 10
452.5
 20
162.5
 10
458.8999999999999
 20
162.5
 10
458.8999999999999
 20
172.1
 10
454.1
 20
176.9
 10
423.7
 20
176.9
 10
418.9
 20
172.1
 10
418.9
 20
162.5
 10
425.3
 20
162.5
  0
LWPOLYLINE
  5
4B6
330
76
100
AcDbEntity
  8
LAYER2
100
AcDbPolyline
 90
       12
 70
     1
 43
0.0
 10
822.4
 20
165.5
 10
824.0
 20
167.1
 10
848.0
 20
167.1
 10
849.6
 20
165.5
 10
849.6
 20
159.1
 10
856.0
 20
159.1
 10
856.0
 20
168.7
 10
851.2
 20
173.5
 10
820.8
 20
173.5
 10
816.0
 20
168.7
 10
816.0
 20
159.1
 10
822.4
 20
159.1
  0
LWPOLYLINE
  5
4C4
330
76
100
AcDbEntity
  8
LAYER2
100
AcDbPolyline
 90
       12
 70
     1
 43
0.0
 10
1794.9
 20
165.5
 10
1796.5
 20
167.1
 10
1820.5
 20
167.1
 10
1822.1
 20
165.5
 10
1822.1
 20
159.1
 10
1828.5
 20
159.1
 10
1828.5
 20
168.7
 10
1823.7
 20
173.5
 10
1793.3
 20
173.5
 10
1788.5
 20
168.7
 10
1788.5
 20
159.1
 10
1794.9
 20
159.1
  0
LWPOLYLINE
  5
4D2
330
76
100
AcDbEntity
  8
LAYER2
100
AcDbPolyline
 90
        8
 70
     1
 43
0.0
 10
1419.7
 20
163.3
 10
1413.3
 20
163.3
 10
1413.3
 20
155.3
 10
1386.1
 20
155.3
 10
1386.1
 20
163.3
 10
1379.7
 20
163.3
 10
1379.7
 20
148.9
 10
1419.7
 20
148.9
  0
LWPOLYLINE
  5
4DC
330
76
100
AcDbEntity
  8
LAYER2
100
AcDbPolyline
 90
       29
 70
     1
 43
0.0
 10
1621.0
 20
153.7
 10
1619.4
 20
155.3
 10
1619.4
 20
171.3
 10
1621.0
 20
172.9
 10
1628.2
 20
172.9
 10
1629.8
 20
171.3
 10
1629.8
 20
157.7
 10
1636.2
 20
157.7
 10
1636.2
 20
171.3
 10
1637.8
 20
172.9
 10
1645.0
 20
172.9
 10
1646.6
 20
171.3
 10
1646.6
 20
155.3
 10
1645.0
 20
153.7
 10
1641.0
 20
153.7
 10
1641.0
 20
147.3
 10
1648.2
 20
147.3
 10
1653.0
 20
152.1
 10
1653.0
 20
174.5
 10
1648.2
 20
179.3
 10
1635.4
 20
179.3
 10
1633.0
 20
176.9
 10
1630.6
 20
179.3
 10
1617.8
 20
179.3
 10
1613.0
 20
174.5
 10
1613.0
 20
152.1
 10
1617.8
 20
147.3
 10
1625.0
 20
147.3
 10
1625.0
 20
153.7
  0
LWPOLYLINE
  5
4FB
330
76
100
AcDbEntity
  8
LAYER2
100
AcDbPolyline
 90
       18
 70
     1
 43
0.0
 10
1186.5
 20
152.7
 10
1184.9
 20
154.3
 10
1184.9
 20
170.3
 10
1186.5
 20
171.9
 10
1189.7
 20
171.9
 10
1208.9
 20
146.3
 10
1218.5
 20
146.3
 10
1218.5
 20
178.3
 10
1212.1
 20
178.3
 10
1212.1
 20
152.7
 10
1204.1
 20
163.4
 10
1192.9
 20
178.3
 10
1183.3
 20
178.3
 10
1178.5
 20
173.5
 10
1178.5
 20
151.1
 10
1183.3
 20
146.3
 10
1190.5
 20
146.3
 10
1190.5
 20
152.7
  0
LWPOLYLINE
  5
50F
330
76
100
AcDbEntity
  8
LAYER2
100
AcDbPolyline
 90
       10
 70
     1
 43
0.0
 10
630.7999999999999
 20
152.1
 10
630.7999999999999
 20
154.5
 10
658.0
 20
154.5
 10
658.0
 20
145.7
 10
664.4
 20
145.7
 10
664.4
 20
169.7
 10
658.0
 20
169.7
 10
658.0
 20
160.9
 10
624.3999999999999
 20
160.9
 10
624.3999999999999
 20
152.1
  0
LWPOLYLINE
  5
51B
330
76
100
AcDbEntity
  8
LAYER2
100
AcDbPolyline
 90
        8
 70
     1
 43
0.0
 10
459.0
 20
157.4
 10
452.6
 20
157.4
 10
452.6
 20
149.4
 10
425.3999999999999
 20
149.4
 10
425.3999999999999
 20
157.4
 10
419.0
 20
157.4
 10
419.0
 20
143.0
 10
459.0
 20
143.0
  0
LWPOLYLINE
  5
525
330
76
100
AcDbEntity
  8
LAYER2
100
AcDbPolyline
 90
        8
 70
     1
 43
0.0
 10
856.0999999999999
 20
154.0
 10
849.6999999999999
 20
154.0
 10
849.6999999999999
 20
146.0
 10
822.4999999999999
 20
146.0
 10
822.4999999999999
 20
154.0
 10
816.0999999999999
 20
154.0
 10
816.0999999999999
 20
139.6
 10
856.0999999999999
 20
139.6
  0
LWPOLYLINE
  5
52F
330
76
100
AcDbEntity
  8
LAYER2
100
AcDbPolyline
 90
        8
 70
     1
 43
0.0
 10
1828.599999999999
 20
154.0
 10
1822.2
 20
154.0
 10
1822.2
 20
146.0
 10
1795.0
 20
146.0
 10
1795.0
 20
154.0
 10
1788.6
 20
154.0
 10
1788.6
 20
139.6
 10
1828.599999999999
 20
139.6
  0
LWPOLYLINE
  5
539
330
76
100
AcDbEntity
  8
LAYER2
100
AcDbPolyline
 90
       12
 70
     1
 43
0.0
 10
1619.4
 20
134.3
 10
1621.0
 20
135.9
 10
1645.0
 20
135.9
 10
1646.6
 20
134.3
 10
1646.6
 20
127.9
 10
1653.0
 20
127.9
 10
1653.0
 20
137.5
 10
1648.2
 20
142.3
 10
1617.8
 20
142.3
 10
1613.0
 20
137.5
 10
1613.0
 20
127.9
 10
1619.4
 20
127.9
  0
LWPOLYLINE
  5
547
330
76
100
AcDbEntity
  8
LAYER2
100
AcDbPolyline
 90
       12
 70
     1
 43
0.0
 10
1184.9
 20
132.1
 10
1186.5
 20
133.7
 10
1210.5
 20
133.7
 10
1212.1
 20
132.1
 10
1212.1
 20
125.7
 10
1218.5
 20
125.7
 10
1218.5
 20
135.3
 10
1213.7
 20
140.1
 10
1183.3
 20
140.1
 10
1178.5
 20
135.3
 10
1178.5
 20
125.7
 10
1184.9
 20
125.7
  0
LWPOLYLINE
  5
555
330
76
100
AcDbEntity
  8
LAYER2
100
AcDbPolyline
 90
       12
 70
     1
 43
0.0
 10
631.0
 20
129.2
 10
632.6
 20
130.8
 10
656.6
 20
130.8
 10
658.2
 20
129.2
 10
658.2
 20
122.8
 10
664.6
 20
122.8
 10
664.6
 20
132.4
 10
659.7999999999999
 20
137.2
 10
629.3999999999999
 20
137.2
 10
624.6
 20
132.4
 10
624.6
 20
122.8
 10
631.0
 20
122.8
  0
LWPOLYLINE
  5
563
330
76
100
AcDbEntity
  8
LAYER2
100
AcDbPolyline
 90
       10
 70
     1
 43
0.0
 10
1419.7
 20
136.9
 10
1419.7
 20
140.9
 10
1379.7
 20
140.9
 10
1379.7
 20
134.5
 10
1406.1
 20
134.5
 10
1379.7
 20
112.9
 10
1379.7
 20
108.9
 10
1419.7
 20
108.9
 10
1419.7
 20
115.3
 10
1393.3
 20
115.3
  0
LWPOLYLINE
  5
56F
330
76
100
AcDbEntity
  8
LAYER2
100
AcDbPolyline
 90
        8
 70
     1
 43
0.0
 10
1653.0
 20
122.9
 10
1646.6
 20
122.9
 10
1646.6
 20
114.9
 10
1619.4
 20
114.9
 10
1619.4
 20
122.9
 10
1613.0
 20
122.9
 10
1613.0
 20
108.5
 10
1653.0
 20
108.5
  0
LWPOLYLINE
  5
579
330
76
100
AcDbEntity
  8
LAYER2
100
AcDbPolyline
 90
        8
 70
     1
 43
0.0
 10
1218.5
 20
120.7
 10
1212.1
 20
120.7
 10
1212.1
 20
112.7
 10
1184.9
 20
112.7
 10
1184.9
 20
120.7
 10
1178.5
 20
120.7
 10
1178.5
 20
106.3
 10
1218.5
 20
106.3
  0
LWPOLYLINE
  5
583
330
76
100
AcDbEntity
  8
LAYER2
100
AcDbPolyline
 90
        8
 70
     1
 43
0.0
 10
664.6
 20
117.8
 10
658.2
 20
117.8
 10
658.2
 20
109.8
 10
631.0
 20
109.8
 10
631.0
 20
117.8
 10
624.6
 20
117.8
 10
624.6
 20
103.4
 10
664.6
 20
103.4
  0
LWPOLYLINE
  5
58D
330
76
100
AcDbEntity
  8
LAYER2
100
AcDbPolyline
 90
       10
 70
     1
 43
0.0
 10
459.0
 20
131.0
 10
459.0
 20
135.0
 10
419.0
 20
135.0
 10
419.0
 20
128.6
 10
445.3999999999999
 20
128.6
 10
419.0
 20
107.0
 10
419.0
 20
103.0
 10
459.0
 20
103.0
 10
459.0
 20
109.4
 10
432.6
 20
109.4
  0
LWPOLYLINE
  5
599
330
76
100
AcDbEntity
  8
LAYER2
100
AcDbPolyline
 90
       10
 70
     1
 43
0.0
 10
856.0999999999999
 20
127.6
 10
856.0999999999999
 20
131.6
 10
816.0999999999999
 20
131.6
 10
816.0999999999999
 20
125.2
 10
842.5
 20
125.2
 10
816.0999999999999
 20
103.6
 10
816.0999999999999
 20
99.6
 10
856.0999999999999
 20
99.6
 10
856.0999999999999
 20
106.0
 10
829.7
 20
106.0
  0
LWPOLYLINE
  5
5A5
330
76
100
AcDbEntity
  8
LAYER2
100
AcDbPolyline
 90
       10
 70
     1
 43
0.0
 10
1828.599999999999
 20
127.6
 10
1828.599999999999
 20
131.6
 10
1788.6
 20
131.6
 10
1788.6
 20
125.2
 10
1815.0
 20
125.2
 10
1788.6
 20
103.6
 10
1788.6
 20
99.6
 10
1828.599999999999
 20
99.6
 10
1828.599999999999
 20
106.0
 10
1802.2
 20
106.0
  0
LWPOLYLINE
  5
5B1
330
76
100
AcDbEntity
  8
LAYER2
100
AcDbPolyline
 90
       22
 70
     1
 43
0.0
 10
1411.7
 20
94.9
 10
1413.3
 20
93.3
 10
1413.3
 20
76.90000000000001
 10
1411.7
 20
75.3
 10
1387.7
 20
75.3
 10
1386.1
 20
76.90000000000001
 10
1386.1
 20
92.9
 10
1387.7
 20
94.50000000000001
 10
1391.7
 20
94.50000000000001
 10
1391.7
 20
100.9
 10
1384.5
 20
100.9
 10
1379.7
 20
96.09999999999999
 10
1379.7
 20
73.7
 10
1384.5
 20
68.9
 10
1414.9
 20
68.9
 10
1419.7
 20
73.7
 10
1419.7
 20
96.09999999999999
 10
1414.9
 20
100.9
 10
1399.7
 20
100.9
 10
1399.7
 20
91.3
 10
1406.1
 20
91.3
 10
1406.1
 20
94.9
  0
LWPOLYLINE
  5
5C9
330
76
100
AcDbEntity
  8
LAYER2
100
AcDbPolyline
 90
       10
 70
     1
 43
0.0
 10
1613.0
 20
100.5
 10
1613.0
 20
94.1
 10
1633.8
 20
94.1
 10
1643.4
 20
84.50000000000001
 10
1633.8
 20
74.90000000000001
 10
1613.0
 20
74.90000000000001
 10
1613.0
 20
68.5
 10
1637.0
 20
68.5
 10
1653.0
 20
84.50000000000001
 10
1637.0
 20
100.5
  0
LWPOLYLINE
  5
5D5
330
76
100
AcDbEntity
  8
LAYER2
100
AcDbPolyline
 90
       10
 70
     1
 43
0.0
 10
1178.5
 20
98.3
 10
1178.5
 20
91.90000000000001
 10
1199.3
 20
91.90000000000001
 10
1208.9
 20
82.3
 10
1199.3
 20
72.7
 10
1178.5
 20
72.7
 10
1178.5
 20
66.29999999999999
 10
1202.5
 20
66.29999999999999
 10
1218.5
 20
82.3
 10
1202.5
 20
98.3
  0
LWPOLYLINE
  5
5E1
330
76
100
AcDbEntity
  8
LAYER2
100
AcDbPolyline
 90
       10
 70
     1
 43
0.0
 10
624.6
 20
95.4
 10
624.6
 20
89.0
 10
645.3999999999999
 20
89.0
 10
655.0
 20
79.40000000000001
 10
645.3999999999999
 20
69.8
 10
624.6
 20
69.8
 10
624.6
 20
63.39999999999999
 10
648.6
 20
63.39999999999999
 10
664.6
 20
79.40000000000001
 10
648.6
 20
95.4
  0
LWPOLYLINE
  5
5ED
330
76
100
AcDbEntity
  8
LAYER2
100
AcDbPolyline
 90
       22
 70
     1
 43
0.0
 10
451.0
 20
89.0
 10
452.6
 20
87.4
 10
452.6
 20
71.0
 10
451.0
 20
69.40000000000001
 10
427.0
 20
69.40000000000001
 10
425.3999999999999
 20
71.0
 10
425.3999999999999
 20
87.0
 10
427.0
 20
88.59999999999999
 10
431.0
 20
88.59999999999999
 10
431.0
 20
95.0
 10
423.8
 20
95.0
 10
419.0
 20
90.20000000000001
 10
419.0
 20
67.8
 10
423.8
 20
63.0
 10
454.1999999999999
 20
63.0
 10
459.0
 20
67.8
 10
459.0
 20
90.20000000000001
 10
454.1999999999999
 20
95.0
 10
439.0
 20
95.0
 10
439.0
 20
85.4
 10
445.3999999999999
 20
85.4
 10
445.3999999999999
 20
89.0
  0
LWPOLYLINE
  5
605
330
76
100
AcDbEntity
  8
LAYER2
100
AcDbPolyline
 90
       22
 70
     1
 43
0.0
 10
848.0999999999999
 20
85.6
 10
849.6999999999999
 20
84.0
 10
849.6999999999999
 20
67.59999999999999
 10
848.0999999999999
 20
66.0
 10
824.0999999999999
 20
66.0
 10
822.4999999999999
 20
67.59999999999999
 10
822.4999999999999
 20
83.59999999999999
 10
824.0999999999999
 20
85.20000000000001
 10
828.1
 20
85.20000000000001
 10
828.1
 20
91.6
 10
820.8999999999999
 20
91.6
 10
816.0999999999999
 20
86.79999999999999
 10
816.0999999999999
 20
64.40000000000001
 10
820.8999999999999
 20
59.6
 10
851.2999999999999
 20
59.6
 10
856.0999999999999
 20
64.40000000000001
 10
856.0999999999999
 20
86.79999999999999
 10
851.2999999999999
 20
91.6
 10
836.1
 20
91.6
 10
836.1
 20
82.0
 10
842.5
 20
82.0
 10
842.5
 20
85.6
  0
LWPOLYLINE
  5
61D
330
76
100
AcDbEntity
  8
LAYER2
100
AcDbPolyline
 90
       22
 70
     1
 43
0.0
 10
1820.6
 20
85.6
 10
1822.2
 20
84.0
 10
1822.2
 20
67.59999999999999
 10
1820.6
 20
66.0
 10
1796.6
 20
66.0
 10
1795.0
 20
67.59999999999999
 10
1795.0
 20
83.59999999999999
 10
1796.6
 20
85.20000000000001
 10
1800.6
 20
85.20000000000001
 10
1800.6
 20
91.6
 10
1793.4
 20
91.6
 10
1788.6
 20
86.79999999999999
 10
1788.6
 20
64.40000000000001
 10
1793.4
 20
59.6
 10
1823.8
 20
59.6
 10
1828.599999999999
 20
64.40000000000001
 10
1828.599999999999
 20
86.79999999999999
 10
1823.8
 20
91.6
 10
1808.6
 20
91.6
 10
1808.6
 20
82.0
 10
1815.0
 20
82.0
 10
1815.0
 20
85.6
  0
LWPOLYLINE
  5
635
330
76
100
AcDbEntity
  8
LAYER2
100
AcDbPolyline
 90
       10
 70
     1
 43
0.0
 10
0.0
 20
0.0
 10
50.0
 20
0.0
 10
50.0
 20
1200.0
 10
2010.0
 20
1200.0
 10
2010.0
 20
50.0
 10
50.0
 20
50.0
 10
50.0
 20
0.0
 10
2060.0
 20
0.0
 10
2060.0
 20
1250.0
 10
0.0
 20
1250.0
  0
ENDSEC
  0
SECTION
  2
OBJECTS
  0
DICTIONARY
  5
C
330
0
100
AcDbDictionary
281
     1
  3
ACAD_COLOR
350
6D
  3
ACAD_GROUP
350
D
  3
ACAD_LAYOUT
350
6C
  3
ACAD_MATERIAL
350
10
  3
ACAD_MLEADERSTYLE
350
70
  3
ACAD_MLINESTYLE
350
69
  3
ACAD_PLOTSETTINGS
350
6B
  3
ACAD_PLOTSTYLENAME
350
E
  3
ACAD_SCALELIST
350
3D
  3
ACAD_TABLESTYLE
350
6E
  3
ACAD_VISUALSTYLE
350
29
  3
ACDB_RECOMPOSE_DATA
350
6B9
  3
AcDbVariableDictionary
350
684
  0
DICTIONARY
  5
649
330
5F
100
AcDbDictionary
280
     1
281
     1
  3
ADSK_XREC_LAYER_RECONCILED
360
64A
  0
DICTIONARY
  5
64B
330
7A
100
AcDbDictionary
280
     1
281
     1
  3
ADSK_XREC_LAYER_RECONCILED
360
64C
  0
DICTIONARY
  5
64D
330
7B
100
AcDbDictionary
280
     1
281
     1
  3
ADSK_XREC_LAYER_RECONCILED
360
64E
  0
DICTIONARY
  5
6D
102
{ACAD_REACTORS
330
C
102
}
330
C
100
AcDbDictionary
281
     1
  0
DICTIONARY
  5
D
102
{ACAD_REACTORS
330
C
102
}
330
C
100
AcDbDictionary
281
     1
  0
DICTIONARY
  5
6C
102
{ACAD_REACTORS
330
C
102
}
330
C
100
AcDbDictionary
281
     1
  3
Layout1
350
75
  3
Model
350
79
  0
DICTIONARY
  5
10
102
{ACAD_REACTORS
330
C
102
}
330
C
100
AcDbDictionary
281
     1
  3
ByBlock
350
19
  3
ByLayer
350
11
  3
Global
350
21
  0
DICTIONARY
  5
70
102
{ACAD_REACTORS
330
C
102
}
330
C
100
AcDbDictionary
281
     1
  3
Standard
350
71
  0
DICTIONARY
  5
69
102
{ACAD_REACTORS
330
C
102
}
330
C
100
AcDbDictionary
281
     1
  3
Standard
350
6A
  0
DICTIONARY
  5
6B
102
{ACAD_REACTORS
330
C
102
}
330
C
100
AcDbDictionary
281
     1
  0
ACDBDICTIONARYWDFLT
  5
E
102
{ACAD_REACTORS
330
C
102
}
330
C
100
AcDbDictionary
281
     1
  3
Normal
350
F
100
AcDbDictionaryWithDefault
340
F
  0
DICTIONARY
  5
3D
102
{ACAD_REACTORS
330
C
102
}
330
C
100
AcDbDictionary
281
     1
  3
A0
350
3E
  3
A1
350
3F
  3
A2
350
40
  3
A3
350
41
  3
A4
350
42
  3
A5
350
43
  3
A6
350
44
  3
A7
350
45
  3
A8
350
46
  3
A9
350
47
  3
B0
350
48
  3
B1
350
49
  3
B2
350
4A
  3
B3
350
4B
  3
B4
350
4C
  3
B5
350
4D
  3
B6
350
4E
  3
B7
350
4F
  3
B8
350
50
  3
B9
350
51
  3
C0
350
52
  3
C1
350
53
  3
C2
350
54
  3
C3
350
55
  3
C4
350
56
  3
C5
350
57
  3
C6
350
58
  3
C7
350
59
  3
C8
350
5A
  3
C9
350
5B
  3
D0
350
5C
  3
D1
350
5D
  3
D2
350
5E
  0
DICTIONARY
  5
6E
102
{ACAD_REACTORS
330
C
102
}
330
C
100
AcDbDictionary
281
     1
  3
Standard
350
6F
  0
DICTIONARY
  5
29
102
{ACAD_REACTORS
330
C
102
}
330
C
100
AcDbDictionary
281
     1
  3
2dWireframe
350
2F
  3
3D Hidden
350
31
  3
3dWireframe
350
30
  3
Basic
350
2E
  3
Brighten
350
35
  3
ColorChange
350
39
  3
Conceptual
350
32
  3
Dim
350
34
  3
EdgeColorOff
350
3C
  3
Facepattern
350
38
  3
Flat
350
2A
  3
FlatWithEdges
350
2B
  3
Gouraud
350
2C
  3
GouraudWithEdges
350
2D
  3
JitterOff
350
3A
  3
Linepattern
350
37
  3
OverhangOff
350
3B
  3
Realistic
350
33
  3
Thicken
350
36
  0
XRECORD
  5
6B9
102
{ACAD_REACTORS
330
C
102
}
330
C
100
AcDbXrecord
280
     1
 90
        1
330
6F
  0
DICTIONARY
  5
684
102
{ACAD_REACTORS
330
C
102
}
330
C
100
AcDbDictionary
281
     1
  3
CANNOSCALE
350
687
  3
CMLEADERSTYLE
350
686
  3
CTABLESTYLE
350
685
  3
XCLIPFRAME
350
688
  0
XRECORD
  5
64A
102
{ACAD_REACTORS
330
649
102
}
330
649
100
AcDbXrecord
280
     1
290
     1
  0
XRECORD
  5
64C
102
{ACAD_REACTORS
330
64B
102
}
330
64B
100
AcDbXrecord
280
     1
290
     1
  0
XRECORD
  5
64E
102
{ACAD_REACTORS
330
64D
102
}
330
64D
100
AcDbXrecord
280
     1
290
     1
  0
LAYOUT
  5
75
102
{ACAD_REACTORS
330
6C
102
}
330
6C
100
AcDbPlotSettings
  1

  2
\\Fp1\Q_2506_Lp126cn
  4

  6

 40
0.0
 41
0.0
 42
0.0
 43
0.0
 44
0.0
 45
0.0
 46
0.0
 47
0.0
 48
0.0
 49
0.0
140
0.0
141
0.0
142
1.0
143
1.0
 70
   688
 72
     0
 73
     0
 74
     5
  7

 75
    16
147
1.0
 76
     0
 77
     2
 78
   300
148
0.0
149
0.0
100
AcDbLayout
  1
Layout1
 70
     1
 71
     1
 10
0.0
 20
0.0
 11
12.0
 21
9.0
 12
0.0
 22
0.0
 32
0.0
 14
1.000000000000000E+20
 24
1.000000000000000E+20
 34
1.000000000000000E+20
 15
-1.000000000000000E+20
 25
-1.000000000000000E+20
 35
-1.000000000000000E+20
146
0.0
 13
0.0
 23
0.0
 33
0.0
 16
1.0
 26
0.0
 36
0.0
 17
0.0
 27
1.0
 37
0.0
 76
     0
330
72
  0
LAYOUT
  5
79
102
{ACAD_REACTORS
330
6C
102
}
330
6C
100
AcDbPlotSettings
  1

  2
\\Fp1\Q_2506_Lp126cn
  4

  6

 40
0.0
 41
0.0
 42
0.0
 43
0.0
 44
0.0
 45
0.0
 46
0.0
 47
0.0
 48
0.0
 49
0.0
140
0.0
141
0.0
142
1.0
143
1.0
 70
  1712
 72
     0
 73
     0
 74
     0
  7

 75
     0
147
1.0
 76
     0
 77
     2
 78
   300
148
0.0
149
0.0
100
AcDbLayout
  1
Model
 70
     1
 71
     0
 10
0.0
 20
0.0
 11
12.0
 21
9.0
 12
0.0
 22
0.0
 32
0.0
 14
0.0
 24
0.0
 34
0.0
 15
0.0
 25
0.0
 35
0.0
146
0.0
 13
0.0
 23
0.0
 33
0.0
 16
1.0
 26
0.0
 36
0.0
 17
0.0
 27
1.0
 37
0.0
 76
     0
330
76
331
7D
  0
MATERIAL
  5
19
102
{ACAD_XDICTIONARY
360
1A
102
}
102
{ACAD_REACTORS
330
10
102
}
330
10
100
AcDbMaterial
  1
ByBlock
 72
     0
 43
0.0208333333333333
 43
0.0
 43
0.0
 43
0.0
 43
0.0
 43
0.0208333333333333
 43
0.0
 43
0.0
 43
0.0
 43
0.0
 43
1.0
 43
0.0
 43
0.0
 43
0.0
 43
0.0
 43
1.0
 77
     0
 47
0.0208333333333333
 47
0.0
 47
0.0
 47
0.0
 47
0.0
 47
0.0208333333333333
 47
0.0
 47
0.0
 47
0.0
 47
0.0
 47
1.0
 47
0.0
 47
0.0
 47
0.0
 47
0.0
 47
1.0
171
     0
 49
0.0208333333333333
 49
0.0
 49
0.0
 49
0.0
 49
0.0
 49
0.0208333333333333
 49
0.0
 49
0.0
 49
0.0
 49
0.0
 49
1.0
 49
0.0
 49
0.0
 49
0.0
 49
0.0
 49
1.0
175
     0
142
0.0208333333333333
142
0.0
142
0.0
142
0.0
142
0.0
142
0.0208333333333333
142
0.0
142
0.0
142
0.0
142
0.0
142
1.0
142
0.0
142
0.0
142
0.0
142
0.0
142
1.0
179
     0
144
0.0208333333333333
144
0.0
144
0.0
144
0.0
144
0.0
144
0.0208333333333333
144
0.0
144
0.0
144
0.0
144
0.0
144
1.0
144
0.0
144
0.0
144
0.0
144
0.0
144
1.0
147
0.0208333333333333
147
0.0
147
0.0
147
0.0
147
0.0
147
0.0208333333333333
147
0.0
147
0.0
147
0.0
147
0.0
147
1.0
147
0.0
147
0.0
147
0.0
147
0.0
147
1.0
  0
MATERIAL
  5
11
102
{ACAD_XDICTIONARY
360
12
102
}
102
{ACAD_REACTORS
330
10
102
}
330
10
100
AcDbMaterial
  1
ByLayer
 72
     0
 43
0.0208333333333333
 43
0.0
 43
0.0
 43
0.0
 43
0.0
 43
0.0208333333333333
 43
0.0
 43
0.0
 43
0.0
 43
0.0
 43
1.0
 43
0.0
 43
0.0
 43
0.0
 43
0.0
 43
1.0
 77
     0
 47
0.0208333333333333
 47
0.0
 47
0.0
 47
0.0
 47
0.0
 47
0.0208333333333333
 47
0.0
 47
0.0
 47
0.0
 47
0.0
 47
1.0
 47
0.0
 47
0.0
 47
0.0
 47
0.0
 47
1.0
171
     0
 49
0.0208333333333333
 49
0.0
 49
0.0
 49
0.0
 49
0.0
 49
0.0208333333333333
 49
0.0
 49
0.0
 49
0.0
 49
0.0
 49
1.0
 49
0.0
 49
0.0
 49
0.0
 49
0.0
 49
1.0
175
     0
142
0.0208333333333333
142
0.0
142
0.0
142
0.0
142
0.0
142
0.0208333333333333
142
0.0
142
0.0
142
0.0
142
0.0
142
1.0
142
0.0
142
0.0
142
0.0
142
0.0
142
1.0
179
     0
144
0.0208333333333333
144
0.0
144
0.0
144
0.0
144
0.0
144
0.0208333333333333
144
0.0
144
0.0
144
0.0
144
0.0
144
1.0
144
0.0
144
0.0
144
0.0
144
0.0
144
1.0
147
0.0208333333333333
147
0.0
147
0.0
147
0.0
147
0.0
147
0.0208333333333333
147
0.0
147
0.0
147
0.0
147
0.0
147
1.0
147
0.0
147
0.0
147
0.0
147
0.0
147
1.0
  0
MATERIAL
  5
21
102
{ACAD_XDICTIONARY
360
22
102
}
102
{ACAD_REACTORS
330
10
102
}
330
10
100
AcDbMaterial
  1
Global
 72
     0
 43
0.0208333333333333
 43
0.0
 43
0.0
 43
0.0
 43
0.0
 43
0.0208333333333333
 43
0.0
 43
0.0
 43
0.0
 43
0.0
 43
1.0
 43
0.0
 43
0.0
 43
0.0
 43
0.0
 43
1.0
 77
     0
 47
0.0208333333333333
 47
0.0
 47
0.0
 47
0.0
 47
0.0
 47
0.0208333333333333
 47
0.0
 47
0.0
 47
0.0
 47
0.0
 47
1.0
 47
0.0
 47
0.0
 47
0.0
 47
0.0
 47
1.0
171
     0
 49
0.0208333333333333
 49
0.0
 49
0.0
 49
0.0
 49
0.0
 49
0.0208333333333333
 49
0.0
 49
0.0
 49
0.0
 49
0.0
 49
1.0
 49
0.0
 49
0.0
 49
0.0
 49
0.0
 49
1.0
175
     0
142
0.0208333333333333
142
0.0
142
0.0
142
0.0
142
0.0
142
0.0208333333333333
142
0.0
142
0.0
142
0.0
142
0.0
142
1.0
142
0.0
142
0.0
142
0.0
142
0.0
142
1.0
179
     0
144
0.0208333333333333
144
0.0
144
0.0
144
0.0
144
0.0
144
0.0208333333333333
144
0.0
144
0.0
144
0.0
144
0.0
144
1.0
144
0.0
144
0.0
144
0.0
144
0.0
144
1.0
147
0.0208333333333333
147
0.0
147
0.0
147
0.0
147
0.0
147
0.0208333333333333
147
0.0
147
0.0
147
0.0
147
0.0
147
1.0
147
0.0
147
0.0
147
0.0
147
0.0
147
1.0
  0
MLEADERSTYLE
  5
71
102
{ACAD_REACTORS
330
70
102
}
330
70
100
AcDbMLeaderStyle
170
     2
171
     1
172
     0
 90
        2
 40
0.0
 41
0.0
173
     1
 91
-1056964608
340
65
 92
       -2
290
     1
 42
0.09
291
     1
 43
0.36
  3
Standard
 44
0.18
300

342
60
174
     1
178
     6
175
     1
176
     0
 93
-1056964608
 45
0.18
292
     0
297
     0
 46
0.18
 94
-1056964608
 47
1.0
 49
1.0
140
1.0
293
     1
141
0.0
294
     1
177
     0
142
1.0
295
     0
296
     0
143
0.125
1001
ACAD_MLEADERVER
1070
     2
  0
MLINESTYLE
  5
6A
102
{ACAD_REACTORS
330
69
102
}
330
69
100
AcDbMlineStyle
  2
STANDARD
 70
     0
  3

 62
   256
 51
90.0
 52
90.0
 71
     2
 49
0.5
 62
   256
  6
BYLAYER
 49
-0.5
 62
   256
  6
BYLAYER
  0
ACDBPLACEHOLDER
  5
F
102
{ACAD_REACTORS
330
E
102
}
330
E
  0
SCALE
  5
3E
102
{ACAD_REACTORS
330
3D
102
}
330
3D
100
AcDbScale
 70
     0
300
1:1
140
1.0
141
1.0
290
     1
  0
SCALE
  5
3F
102
{ACAD_REACTORS
330
3D
102
}
330
3D
100
AcDbScale
 70
     0
300
1:2
140
1.0
141
2.0
290
     0
  0
SCALE
  5
40
102
{ACAD_REACTORS
330
3D
102
}
330
3D
100
AcDbScale
 70
     0
300
1:4
140
1.0
141
4.0
290
     0
  0
SCALE
  5
41
102
{ACAD_REACTORS
330
3D
102
}
330
3D
100
AcDbScale
 70
     0
300
1:5
140
1.0
141
5.0
290
     0
  0
SCALE
  5
42
102
{ACAD_REACTORS
330
3D
102
}
330
3D
100
AcDbScale
 70
     0
300
1:8
140
1.0
141
8.0
290
     0
  0
SCALE
  5
43
102
{ACAD_REACTORS
330
3D
102
}
330
3D
100
AcDbScale
 70
     0
300
1:10
140
1.0
141
10.0
290
     0
  0
SCALE
  5
44
102
{ACAD_REACTORS
330
3D
102
}
330
3D
100
AcDbScale
 70
     0
300
1:16
140
1.0
141
16.0
290
     0
  0
SCALE
  5
45
102
{ACAD_REACTORS
330
3D
102
}
330
3D
100
AcDbScale
 70
     0
300
1:20
140
1.0
141
20.0
290
     0
  0
SCALE
  5
46
102
{ACAD_REACTORS
330
3D
102
}
330
3D
100
AcDbScale
 70
     0
300
1:30
140
1.0
141
30.0
290
     0
  0
SCALE
  5
47
102
{ACAD_REACTORS
330
3D
102
}
330
3D
100
AcDbScale
 70
     0
300
1:40
140
1.0
141
40.0
290
     0
  0
SCALE
  5
48
102
{ACAD_REACTORS
330
3D
102
}
330
3D
100
AcDbScale
 70
     0
300
1:50
140
1.0
141
50.0
290
     0
  0
SCALE
  5
49
102
{ACAD_REACTORS
330
3D
102
}
330
3D
100
AcDbScale
 70
     0
300
1:100
140
1.0
141
100.0
290
     0
  0
SCALE
  5
4A
102
{ACAD_REACTORS
330
3D
102
}
330
3D
100
AcDbScale
 70
     0
300
2:1
140
2.0
141
1.0
290
     0
  0
SCALE
  5
4B
102
{ACAD_REACTORS
330
3D
102
}
330
3D
100
AcDbScale
 70
     0
300
4:1
140
4.0
141
1.0
290
     0
  0
SCALE
  5
4C
102
{ACAD_REACTORS
330
3D
102
}
330
3D
100
AcDbScale
 70
     0
300
8:1
140
8.0
141
1.0
290
     0
  0
SCALE
  5
4D
102
{ACAD_REACTORS
330
3D
102
}
330
3D
100
AcDbScale
 70
     0
300
10:1
140
10.0
141
1.0
290
     0
  0
SCALE
  5
4E
102
{ACAD_REACTORS
330
3D
102
}
330
3D
100
AcDbScale
 70
     0
300
100:1
140
100.0
141
1.0
290
     0
  0
SCALE
  5
4F
102
{ACAD_REACTORS
330
3D
102
}
330
3D
100
AcDbScale
 70
     0
300
1/128" = 1'-0"
140
0.0078125
141
12.0
290
     0
  0
SCALE
  5
50
102
{ACAD_REACTORS
330
3D
102
}
330
3D
100
AcDbScale
 70
     0
300
1/64" = 1'-0"
140
0.015625
141
12.0
290
     0
  0
SCALE
  5
51
102
{ACAD_REACTORS
330
3D
102
}
330
3D
100
AcDbScale
 70
     0
300
1/32" = 1'-0"
140
0.03125
141
12.0
290
     0
  0
SCALE
  5
52
102
{ACAD_REACTORS
330
3D
102
}
330
3D
100
AcDbScale
 70
     0
300
1/16" = 1'-0"
140
0.0625
141
12.0
290
     0
  0
SCALE
  5
53
102
{ACAD_REACTORS
330
3D
102
}
330
3D
100
AcDbScale
 70
     0
300
3/32" = 1'-0"
140
0.09375
141
12.0
290
     0
  0
SCALE
  5
54
102
{ACAD_REACTORS
330
3D
102
}
330
3D
100
AcDbScale
 70
     0
300
1/8" = 1'-0"
140
0.125
141
12.0
290
     0
  0
SCALE
  5
55
102
{ACAD_REACTORS
330
3D
102
}
330
3D
100
AcDbScale
 70
     0
300
3/16" = 1'-0"
140
0.1875
141
12.0
290
     0
  0
SCALE
  5
56
102
{ACAD_REACTORS
330
3D
102
}
330
3D
100
AcDbScale
 70
     0
300
1/4" = 1'-0"
140
0.25
141
12.0
290
     0
  0
SCALE
  5
57
102
{ACAD_REACTORS
330
3D
102
}
330
3D
100
AcDbScale
 70
     0
300
3/8" = 1'-0"
140
0.375
141
12.0
290
     0
  0
SCALE
  5
58
102
{ACAD_REACTORS
330
3D
102
}
330
3D
100
AcDbScale
 70
     0
300
1/2" = 1'-0"
140
0.5
141
12.0
290
     0
  0
SCALE
  5
59
102
{ACAD_REACTORS
330
3D
102
}
330
3D
100
AcDbScale
 70
     0
300
3/4" = 1'-0"
140
0.75
141
12.0
290
     0
  0
SCALE
  5
5A
102
{ACAD_REACTORS
330
3D
102
}
330
3D
100
AcDbScale
 70
     0
300
1" = 1'-0"
140
1.0
141
12.0
290
     0
  0
SCALE
  5
5B
102
{ACAD_REACTORS
330
3D
102
}
330
3D
100
AcDbScale
 70
     0
300
1-1/2" = 1'-0"
140
1.5
141
12.0
290
     0
  0
SCALE
  5
5C
102
{ACAD_REACTORS
330
3D
102
}
330
3D
100
AcDbScale
 70
     0
300
3" = 1'-0"
140
3.0
141
12.0
290
     0
  0
SCALE
  5
5D
102
{ACAD_REACTORS
330
3D
102
}
330
3D
100
AcDbScale
 70
     0
300
6" = 1'-0"
140
6.0
141
12.0
290
     0
  0
SCALE
  5
5E
102
{ACAD_REACTORS
330
3D
102
}
330
3D
100
AcDbScale
 70
     0
300
1'-0" = 1'-0"
140
12.0
141
12.0
290
     0
  0
TABLESTYLE
  5
6F
102
{ACAD_XDICTIONARY
360
6B7
102
}
102
{ACAD_REACTORS
330
6E
102
}
330
6E
100
AcDbTableStyle
  3
Standard
 70
     0
 71
     0
 40
0.06
 41
0.06
280
     0
281
     0
  7
Standard
140
0.18
170
     2
 62
     0
 63
     7
283
     0
274
    -2
284
     1
 64
     0
275
    -2
285
     1
 65
     0
276
    -2
286
     1
 66
     0
277
    -2
287
     1
 67
     0
278
    -2
288
     1
 68
     0
279
    -2
289
     1
 69
     0
  7
Standard
140
0.25
170
     5
 62
     0
 63
     7
283
     0
274
    -2
284
     1
 64
     0
275
    -2
285
     1
 65
     0
276
    -2
286
     1
 66
     0
277
    -2
287
     1
 67
     0
278
    -2
288
     1
 68
     0
279
    -2
289
     1
 69
     0
  7
Standard
140
0.18
170
     5
 62
     0
 63
     7
283
     0
274
    -2
284
     1
 64
     0
275
    -2
285
     1
 65
     0
276
    -2
286
     1
 66
     0
277
    -2
287
     1
 67
     0
278
    -2
288
     1
 68
     0
279
    -2
289
     1
 69
     0
  0
VISUALSTYLE
  5
2F
102
{ACAD_XDICTIONARY
360
6C7
102
}
102
{ACAD_REACTORS
330
29
102
}
330
29
100
AcDbVisualStyle
  2
2dWireframe
 70
     4
 71
     0
 72
     2
 73
     0
 90
        0
 40
-0.6
 41
-30.0
 62
     5
 63
     7
421
 16777215
 74
     1
 91
        4
 64
     7
 65
   257
 75
     1
175
     1
 42
1.0
 92
        0
 66
   257
 43
1.0
 76
     1
 77
     6
 78
     2
 67
     7
 79
     5
170
     0
171
     0
290
     0
174
     0
 93
        1
 44
0.0
173
     0
291
     0
 45
0.0
1001
ACAD
1000
AcDbSavedByObjectVersion
1070
     0
  0
VISUALSTYLE
  5
31
102
{ACAD_XDICTIONARY
360
6CB
102
}
102
{ACAD_REACTORS
330
29
102
}
330
29
100
AcDbVisualStyle
  2
3D Hidden
 70
     6
 71
     1
 72
     2
 73
     2
 90
        0
 40
-0.6
 41
-30.0
 62
     5
 63
     7
421
 16777215
 74
     2
 91
        2
 64
     7
 65
   257
 75
     2
175
     1
 42
179.0
 92
        0
 66
   257
 43
1.0
 76
     1
 77
     6
 78
     2
 67
     7
 79
     3
170
     0
171
     0
290
     0
174
     0
 93
        1
 44
0.0
173
     0
291
     0
 45
0.0
1001
ACAD
1000
AcDbSavedByObjectVersion
1070
     0
  0
VISUALSTYLE
  5
30
102
{ACAD_XDICTIONARY
360
6C9
102
}
102
{ACAD_REACTORS
330
29
102
}
330
29
100
AcDbVisualStyle
  2
3dWireframe
 70
     5
 71
     0
 72
     2
 73
     0
 90
        0
 40
-0.6
 41
-30.0
 62
     5
 63
     7
421
 16777215
 74
     1
 91
        4
 64
     7
 65
   257
 75
     1
175
     1
 42
1.0
 92
        0
 66
   257
 43
1.0
 76
     1
 77
     6
 78
     2
 67
     7
 79
     5
170
     0
171
     0
290
     0
174
     0
 93
        1
 44
0.0
173
     0
291
     0
 45
0.0
1001
ACAD
1000
AcDbSavedByObjectVersion
1070
     0
  0
VISUALSTYLE
  5
2E
102
{ACAD_XDICTIONARY
360
6C5
102
}
102
{ACAD_REACTORS
330
29
102
}
330
29
100
AcDbVisualStyle
  2
Basic
 70
     7
 71
     1
 72
     0
 73
     1
 90
        0
 40
-0.6
 41
-30.0
 62
     5
 63
     7
421
 16777215
 74
     0
 91
        4
 64
     7
 65
   257
 75
     1
175
     1
 42
1.0
 92
        8
 66
     7
 43
1.0
 76
     1
 77
     6
 78
     2
 67
     7
 79
     5
170
     0
171
     0
290
     0
174
     0
 93
        1
 44
0.0
173
     0
291
     1
 45
0.0
1001
ACAD
1000
AcDbSavedByObjectVersion
1070
     0
  0
VISUALSTYLE
  5
35
102
{ACAD_XDICTIONARY
360
6D3
102
}
102
{ACAD_REACTORS
330
29
102
}
330
29
100
AcDbVisualStyle
  2
Brighten
 70
    12
 71
     2
 72
     2
 73
     0
 90
        0
 40
-0.6
 41
-30.0
 62
     5
 63
     7
421
 16777215
 74
     1
 91
        4
 64
     7
 65
   257
 75
     1
175
     1
 42
1.0
 92
        8
 66
     7
 43
1.0
 76
     1
 77
     6
 78
     2
 67
     7
 79
     5
170
     0
171
     0
290
     0
174
     0
 93
        1
 44
50.0
173
     0
291
     1
 45
0.0
1001
ACAD
1000
AcDbSavedByObjectVersion
1070
     0
  0
VISUALSTYLE
  5
39
102
{ACAD_XDICTIONARY
360
6DB
102
}
102
{ACAD_REACTORS
330
29
102
}
330
29
100
AcDbVisualStyle
  2
ColorChange
 70
    16
 71
     2
 72
     2
 73
     3
 90
        0
 40
-0.6
 41
-30.0
 62
     5
 63
     8
421
  8421504
 74
     1
 91
        4
 64
     7
 65
   257
 75
     1
175
     1
 42
1.0
 92
        8
 66
     8
424
  8421504
 43
1.0
 76
     1
 77
     6
 78
     2
 67
     7
 79
     5
170
     0
171
     0
290
     0
174
     0
 93
        1
 44
0.0
173
     0
291
     1
 45
0.0
1001
ACAD
1000
AcDbSavedByObjectVersion
1070
     0
  0
VISUALSTYLE
  5
32
102
{ACAD_XDICTIONARY
360
6CD
102
}
102
{ACAD_REACTORS
330
29
102
}
330
29
100
AcDbVisualStyle
  2
Conceptual
 70
     9
 71
     3
 72
     2
 73
     0
 90
        0
 40
-0.6
 41
-30.0
 62
     5
 63
     7
421
 16777215
 74
     2
 91
        2
 64
     7
 65
   257
 75
     1
175
     1
 42
179.0
 92
        8
 66
     7
 43
1.0
 76
     1
 77
     6
 78
     2
 67
     7
 79
     3
170
     0
171
     0
290
     0
174
     0
 93
        1
 44
0.0
173
     0
291
     0
 45
0.0
1001
ACAD
1000
AcDbSavedByObjectVersion
1070
     0
  0
VISUALSTYLE
  5
34
102
{ACAD_XDICTIONARY
360
6D1
102
}
102
{ACAD_REACTORS
330
29
102
}
330
29
100
AcDbVisualStyle
  2
Dim
 70
    11
 71
     2
 72
     2
 73
     0
 90
        0
 40
-0.6
 41
-30.0
 62
     5
 63
     7
421
 16777215
 74
     1
 91
        4
 64
     7
 65
   257
 75
     1
175
     1
 42
1.0
 92
        8
 66
     7
 43
1.0
 76
     1
 77
     6
 78
     2
 67
     7
 79
     5
170
     0
171
     0
290
     0
174
     0
 93
        1
 44
-50.0
173
     0
291
     1
 45
0.0
1001
ACAD
1000
AcDbSavedByObjectVersion
1070
     0
  0
VISUALSTYLE
  5
3C
102
{ACAD_XDICTIONARY
360
6E1
102
}
102
{ACAD_REACTORS
330
29
102
}
330
29
100
AcDbVisualStyle
  2
EdgeColorOff
 70
    22
 71
     2
 72
     2
 73
     0
 90
        0
 40
-0.6
 41
-30.0
 62
     5
 63
     7
421
 16777215
 74
     1
 91
        4
 64
     7
 65
   257
 75
     1
175
     1
 42
1.0
 92
        8
 66
     7
 43
1.0
 76
     1
 77
     6
 78
     2
 67
     7
 79
     5
170
     0
171
     0
290
     0
174
     0
 93
        1
 44
0.0
173
     0
291
     1
 45
0.0
1001
ACAD
1000
AcDbSavedByObjectVersion
1070
     0
  0
VISUALSTYLE
  5
38
102
{ACAD_XDICTIONARY
360
6D9
102
}
102
{ACAD_REACTORS
330
29
102
}
330
29
100
AcDbVisualStyle
  2
Facepattern
 70
    15
 71
     2
 72
     2
 73
     0
 90
        0
 40
-0.6
 41
-30.0
 62
     5
 63
     7
421
 16777215
 74
     1
 91
        4
 64
     7
 65
   257
 75
     1
175
     1
 42
1.0
 92
        8
 66
     7
 43
1.0
 76
     1
 77
     6
 78
     2
 67
     7
 79
     5
170
     0
171
     0
290
     0
174
     0
 93
        1
 44
0.0
173
     0
291
     1
 45
0.0
1001
ACAD
1000
AcDbSavedByObjectVersion
1070
     0
  0
VISUALSTYLE
  5
2A
102
{ACAD_XDICTIONARY
360
6BD
102
}
102
{ACAD_REACTORS
330
29
102
}
330
29
100
AcDbVisualStyle
  2
Flat
 70
     0
 71
     2
 72
     1
 73
     1
 90
        2
 40
-0.6
 41
30.0
 62
     5
 63
     7
421
 16777215
 74
     0
 91
        4
 64
     7
 65
   257
 75
     1
175
     1
 42
1.0
 92
        8
 66
     7
 43
1.0
 76
     1
 77
     6
 78
     2
 67
     7
 79
     5
170
     0
171
     0
290
     0
174
     0
 93
       13
 44
0.0
173
     0
291
     1
 45
0.0
1001
ACAD
1000
AcDbSavedByObjectVersion
1070
     0
  0
VISUALSTYLE
  5
2B
102
{ACAD_XDICTIONARY
360
6BF
102
}
102
{ACAD_REACTORS
330
29
102
}
330
29
100
AcDbVisualStyle
  2
FlatWithEdges
 70
     1
 71
     2
 72
     1
 73
     1
 90
        2
 40
-0.6
 41
30.0
 62
     5
 63
     7
421
 16777215
 74
     1
 91
        4
 64
     7
 65
   257
 75
     1
175
     1
 42
1.0
 92
        0
 66
   257
 43
1.0
 76
     1
 77
     6
 78
     2
 67
     7
 79
     5
170
     0
171
     0
290
     0
174
     0
 93
       13
 44
0.0
173
     0
291
     1
 45
0.0
1001
ACAD
1000
AcDbSavedByObjectVersion
1070
     0
  0
VISUALSTYLE
  5
2C
102
{ACAD_XDICTIONARY
360
6C1
102
}
102
{ACAD_REACTORS
330
29
102
}
330
29
100
AcDbVisualStyle
  2
Gouraud
 70
     2
 71
     2
 72
     2
 73
     1
 90
        2
 40
-0.6
 41
30.0
 62
     5
 63
     7
421
 16777215
 74
     0
 91
        4
 64
     7
 65
   257
 75
     1
175
     1
 42
1.0
 92
        0
 66
     7
 43
1.0
 76
     1
 77
     6
 78
     2
 67
     7
 79
     5
170
     0
171
     0
290
     0
174
     0
 93
       13
 44
0.0
173
     0
291
     1
 45
0.0
1001
ACAD
1000
AcDbSavedByObjectVersion
1070
     0
  0
VISUALSTYLE
  5
2D
102
{ACAD_XDICTIONARY
360
6C3
102
}
102
{ACAD_REACTORS
330
29
102
}
330
29
100
AcDbVisualStyle
  2
GouraudWithEdges
 70
     3
 71
     2
 72
     2
 73
     1
 90
        2
 40
-0.6
 41
30.0
 62
     5
 63
     7
421
 16777215
 74
     1
 91
        4
 64
     7
 65
   257
 75
     1
175
     1
 42
1.0
 92
        0
 66
   257
 43
1.0
 76
     1
 77
     6
 78
     2
 67
     7
 79
     5
170
     0
171
     0
290
     0
174
     0
 93
       13
 44
0.0
173
     0
291
     1
 45
0.0
1001
ACAD
1000
AcDbSavedByObjectVersion
1070
     0
  0
VISUALSTYLE
  5
3A
102
{ACAD_XDICTIONARY
360
6DD
102
}
102
{ACAD_REACTORS
330
29
102
}
330
29
100
AcDbVisualStyle
  2
JitterOff
 70
    20
 71
     2
 72
     2
 73
     0
 90
        0
 40
-0.6
 41
-30.0
 62
     5
 63
     7
421
 16777215
 74
     1
 91
        4
 64
     7
 65
   257
 75
     1
175
     1
 42
1.0
 92
       10
 66
     7
 43
1.0
 76
     1
 77
     6
 78
     2
 67
     7
 79
     5
170
     0
171
     0
290
     0
174
     0
 93
        1
 44
0.0
173
     0
291
     1
 45
0.0
1001
ACAD
1000
AcDbSavedByObjectVersion
1070
     0
  0
VISUALSTYLE
  5
37
102
{ACAD_XDICTIONARY
360
6D7
102
}
102
{ACAD_REACTORS
330
29
102
}
330
29
100
AcDbVisualStyle
  2
Linepattern
 70
    14
 71
     2
 72
     2
 73
     0
 90
        0
 40
-0.6
 41
-30.0
 62
     5
 63
     7
421
 16777215
 74
     1
 91
        4
 64
     7
 65
   257
 75
     7
175
     7
 42
1.0
 92
        8
 66
     7
 43
1.0
 76
     1
 77
     6
 78
     2
 67
     7
 79
     5
170
     0
171
     0
290
     0
174
     0
 93
        1
 44
0.0
173
     0
291
     1
 45
0.0
1001
ACAD
1000
AcDbSavedByObjectVersion
1070
     0
  0
VISUALSTYLE
  5
3B
102
{ACAD_XDICTIONARY
360
6DF
102
}
102
{ACAD_REACTORS
330
29
102
}
330
29
100
AcDbVisualStyle
  2
OverhangOff
 70
    21
 71
     2
 72
     2
 73
     0
 90
        0
 40
-0.6
 41
-30.0
 62
     5
 63
     7
421
 16777215
 74
     1
 91
        4
 64
     7
 65
   257
 75
     1
175
     1
 42
1.0
 92
        9
 66
     7
 43
1.0
 76
     1
 77
     6
 78
     2
 67
     7
 79
     5
170
     0
171
     0
290
     0
174
     0
 93
        1
 44
0.0
173
     0
291
     1
 45
0.0
1001
ACAD
1000
AcDbSavedByObjectVersion
1070
     0
  0
VISUALSTYLE
  5
33
102
{ACAD_XDICTIONARY
360
6CF
102
}
102
{ACAD_REACTORS
330
29
102
}
330
29
100
AcDbVisualStyle
  2
Realistic
 70
     8
 71
     2
 72
     2
 73
     0
 90
        0
 40
-0.6
 41
-30.0
 62
     5
 63
     7
421
 16777215
 74
     1
 91
        0
 64
     7
 65
   257
 75
     1
175
     1
 42
1.0
 92
        8
 66
     8
424
  7895160
 43
1.0
 76
     1
 77
     6
 78
     2
 67
     7
 79
     5
170
     0
171
     0
290
     0
174
     0
 93
       13
 44
0.0
173
     0
291
     0
 45
0.0
1001
ACAD
1000
AcDbSavedByObjectVersion
1070
     0
  0
VISUALSTYLE
  5
36
102
{ACAD_XDICTIONARY
360
6D5
102
}
102
{ACAD_REACTORS
330
29
102
}
330
29
100
AcDbVisualStyle
  2
Thicken
 70
    13
 71
     2
 72
     2
 73
     0
 90
        0
 40
-0.6
 41
-30.0
 62
     5
 63
     7
421
 16777215
 74
     1
 91
        4
 64
     7
 65
   257
 75
     1
175
     1
 42
1.0
 92
       12
 66
     7
 43
1.0
 76
     1
 77
     6
 78
     2
 67
     7
 79
     5
170
     0
171
     0
290
     0
174
     0
 93
        1
 44
0.0
173
     0
291
     1
 45
0.0
1001
ACAD
1000
AcDbSavedByObjectVersion
1070
     0
  0
DICTIONARYVAR
  5
687
102
{ACAD_REACTORS
330
684
102
}
330
684
100
DictionaryVariables
280
     0
  1
1:1
  0
DICTIONARYVAR
  5
686
102
{ACAD_REACTORS
330
684
102
}
330
684
100
DictionaryVariables
280
     0
  1
STANDARD
  0
DICTIONARYVAR
  5
685
102
{ACAD_REACTORS
330
684
102
}
330
684
100
DictionaryVariables
280
     0
  1
STANDARD
  0
DICTIONARYVAR
  5
688
102
{ACAD_REACTORS
330
684
102
}
330
684
100
DictionaryVariables
280
     0
  1
2
  0
DICTIONARY
  5
1A
330
19
100
AcDbDictionary
280
     1
281
     1
  3
ACAD_XREC_ROUNDTRIP
360
6BB
  3
BUMPTILE
360
1C
  3
DIFFUSETILE
360
1B
  3
OPACITYTILE
360
1F
  3
REFLECTIONTILE
360
1E
  3
REFRACTIONTILE
360
20
  3
SPECULARTILE
360
1D
  0
DICTIONARY
  5
12
330
11
100
AcDbDictionary
280
     1
281
     1
  3
ACAD_XREC_ROUNDTRIP
360
6BA
  3
BUMPTILE
360
14
  3
DIFFUSETILE
360
13
  3
OPACITYTILE
360
17
  3
REFLECTIONTILE
360
16
  3
REFRACTIONTILE
360
18
  3
SPECULARTILE
360
15
  0
DICTIONARY
  5
22
330
21
100
AcDbDictionary
280
     1
281
     1
  3
ACAD_XREC_ROUNDTRIP
360
6BC
  3
BUMPTILE
360
24
  3
DIFFUSETILE
360
23
  3
OPACITYTILE
360
27
  3
REFLECTIONTILE
360
26
  3
REFRACTIONTILE
360
28
  3
SPECULARTILE
360
25
  0
DICTIONARY
  5
6B7
330
6F
100
AcDbDictionary
280
     1
281
     1
  3
ACAD_ROUNDTRIP_2008_TABLESTYLE_CELLSTYLEMAP
360
6B8
  3
ACAD_XREC_ROUNDTRIP
360
6E3
  0
DICTIONARY
  5
6C7
330
2F
100
AcDbDictionary
280
     1
281
     1
  3
ACAD_XREC_ROUNDTRIP
360
6C8
  0
DICTIONARY
  5
6CB
330
31
100
AcDbDictionary
280
     1
281
     1
  3
ACAD_XREC_ROUNDTRIP
360
6CC
  0
DICTIONARY
  5
6C9
330
30
100
AcDbDictionary
280
     1
281
     1
  3
ACAD_XREC_ROUNDTRIP
360
6CA
  0
DICTIONARY
  5
6C5
330
2E
100
AcDbDictionary
280
     1
281
     1
  3
ACAD_XREC_ROUNDTRIP
360
6C6
  0
DICTIONARY
  5
6D3
330
35
100
AcDbDictionary
280
     1
281
     1
  3
ACAD_XREC_ROUNDTRIP
360
6D4
  0
DICTIONARY
  5
6DB
330
39
100
AcDbDictionary
280
     1
281
     1
  3
ACAD_XREC_ROUNDTRIP
360
6DC
  0
DICTIONARY
  5
6CD
330
32
100
AcDbDictionary
280
     1
281
     1
  3
ACAD_XREC_ROUNDTRIP
360
6CE
  0
DICTIONARY
  5
6D1
330
34
100
AcDbDictionary
280
     1
281
     1
  3
ACAD_XREC_ROUNDTRIP
360
6D2
  0
DICTIONARY
  5
6E1
330
3C
100
AcDbDictionary
280
     1
281
     1
  3
ACAD_XREC_ROUNDTRIP
360
6E2
  0
DICTIONARY
  5
6D9
330
38
100
AcDbDictionary
280
     1
281
     1
  3
ACAD_XREC_ROUNDTRIP
360
6DA
  0
DICTIONARY
  5
6BD
330
2A
100
AcDbDictionary
280
     1
281
     1
  3
ACAD_XREC_ROUNDTRIP
360
6BE
  0
DICTIONARY
  5
6BF
330
2B
100
AcDbDictionary
280
     1
281
     1
  3
ACAD_XREC_ROUNDTRIP
360
6C0
  0
DICTIONARY
  5
6C1
330
2C
100
AcDbDictionary
280
     1
281
     1
  3
ACAD_XREC_ROUNDTRIP
360
6C2
  0
DICTIONARY
  5
6C3
330
2D
100
AcDbDictionary
280
     1
281
     1
  3
ACAD_XREC_ROUNDTRIP
360
6C4
  0
DICTIONARY
  5
6DD
330
3A
100
AcDbDictionary
280
     1
281
     1
  3
ACAD_XREC_ROUNDTRIP
360
6DE
  0
DICTIONARY
  5
6D7
330
37
100
AcDbDictionary
280
     1
281
     1
  3
ACAD_XREC_ROUNDTRIP
360
6D8
  0
DICTIONARY
  5
6DF
330
3B
100
AcDbDictionary
280
     1
281
     1
  3
ACAD_XREC_ROUNDTRIP
360
6E0
  0
DICTIONARY
  5
6CF
330
33
100
AcDbDictionary
280
     1
281
     1
  3
ACAD_XREC_ROUNDTRIP
360
6D0
  0
DICTIONARY
  5
6D5
330
36
100
AcDbDictionary
280
     1
281
     1
  3
ACAD_XREC_ROUNDTRIP
360
6D6
  0
XRECORD
  5
6BB
102
{ACAD_REACTORS
330
1A
102
}
330
1A
100
AcDbXrecord
280
     1
102
MATERIAL
148
0.0
149
0.0
149
0.0
 93
        0
 94
      127
282
     0
 72
     0
 77
     0
171
     0
175
     0
179
     0
273
     0
  0
XRECORD
  5
1C
102
{ACAD_REACTORS
330
1A
102
}
330
1A
100
AcDbXrecord
280
     1
270
     1
271
     1
  0
XRECORD
  5
1B
102
{ACAD_REACTORS
330
1A
102
}
330
1A
100
AcDbXrecord
280
     1
270
     1
271
     1
  0
XRECORD
  5
1F
102
{ACAD_REACTORS
330
1A
102
}
330
1A
100
AcDbXrecord
280
     1
270
     1
271
     1
  0
XRECORD
  5
1E
102
{ACAD_REACTORS
330
1A
102
}
330
1A
100
AcDbXrecord
280
     1
270
     1
271
     1
  0
XRECORD
  5
20
102
{ACAD_REACTORS
330
1A
102
}
330
1A
100
AcDbXrecord
280
     1
270
     1
271
     1
  0
XRECORD
  5
1D
102
{ACAD_REACTORS
330
1A
102
}
330
1A
100
AcDbXrecord
280
     1
270
     1
271
     1
  0
XRECORD
  5
6BA
102
{ACAD_REACTORS
330
12
102
}
330
12
100
AcDbXrecord
280
     1
102
MATERIAL
148
0.0
149
0.0
149
0.0
 93
        0
 94
      127
282
     0
 72
     0
 77
     0
171
     0
175
     0
179
     0
273
     0
  0
XRECORD
  5
14
102
{ACAD_REACTORS
330
12
102
}
330
12
100
AcDbXrecord
280
     1
270
     1
271
     1
  0
XRECORD
  5
13
102
{ACAD_REACTORS
330
12
102
}
330
12
100
AcDbXrecord
280
     1
270
     1
271
     1
  0
XRECORD
  5
17
102
{ACAD_REACTORS
330
12
102
}
330
12
100
AcDbXrecord
280
     1
270
     1
271
     1
  0
XRECORD
  5
16
102
{ACAD_REACTORS
330
12
102
}
330
12
100
AcDbXrecord
280
     1
270
     1
271
     1
  0
XRECORD
  5
18
102
{ACAD_REACTORS
330
12
102
}
330
12
100
AcDbXrecord
280
     1
270
     1
271
     1
  0
XRECORD
  5
15
102
{ACAD_REACTORS
330
12
102
}
330
12
100
AcDbXrecord
280
     1
270
     1
271
     1
  0
XRECORD
  5
6BC
102
{ACAD_REACTORS
330
22
102
}
330
22
100
AcDbXrecord
280
     1
102
MATERIAL
148
0.0
149
0.0
149
0.0
 93
        0
 94
      127
282
     0
 72
     0
 77
     0
171
     0
175
     0
179
     0
273
     0
  0
XRECORD
  5
24
102
{ACAD_REACTORS
330
22
102
}
330
22
100
AcDbXrecord
280
     1
270
     1
271
     1
  0
XRECORD
  5
23
102
{ACAD_REACTORS
330
22
102
}
330
22
100
AcDbXrecord
280
     1
270
     1
271
     1
  0
XRECORD
  5
27
102
{ACAD_REACTORS
330
22
102
}
330
22
100
AcDbXrecord
280
     1
270
     1
271
     1
  0
XRECORD
  5
26
102
{ACAD_REACTORS
330
22
102
}
330
22
100
AcDbXrecord
280
     1
270
     1
271
     1
  0
XRECORD
  5
28
102
{ACAD_REACTORS
330
22
102
}
330
22
100
AcDbXrecord
280
     1
270
     1
271
     1
  0
XRECORD
  5
25
102
{ACAD_REACTORS
330
22
102
}
330
22
100
AcDbXrecord
280
     1
270
     1
271
     1
  0
CELLSTYLEMAP
  5
6B8
102
{ACAD_REACTORS
330
6B7
102
}
330
6B7
100
AcDbCellStyleMap
 90
        3
300
CELLSTYLE
  1
TABLEFORMAT_BEGIN
 90
        5
170
     1
 91
        0
 92
    32768
 62
   257
 93
        1
300
CONTENTFORMAT
  1
CONTENTFORMAT_BEGIN
 90
        0
 91
        0
 92
      512
 93
        0
300

 40
0.0
140
1.0
 94
        5
 62
     0
340
60
144
0.25
309
CONTENTFORMAT_END
171
     0
 94
        0
309
TABLEFORMAT_END
  1
CELLSTYLE_BEGIN
 90
        1
 91
        1
300
_TITLE
309
CELLSTYLE_END
300
CELLSTYLE
  1
TABLEFORMAT_BEGIN
 90
        5
170
     1
 91
        0
 92
        0
 62
   257
 93
        1
300
CONTENTFORMAT
  1
CONTENTFORMAT_BEGIN
 90
        0
 91
        0
 92
      512
 93
        0
300

 40
0.0
140
1.0
 94
        5
 62
     0
340
60
144
0.18
309
CONTENTFORMAT_END
171
     0
 94
        0
309
TABLEFORMAT_END
  1
CELLSTYLE_BEGIN
 90
        2
 91
        1
300
_HEADER
309
CELLSTYLE_END
300
CELLSTYLE
  1
TABLEFORMAT_BEGIN
 90
        5
170
     1
 91
        0
 92
        0
 62
   257
 93
        1
300
CONTENTFORMAT
  1
CONTENTFORMAT_BEGIN
 90
        0
 91
        0
 92
      512
 93
        0
300

 40
0.0
140
1.0
 94
        2
 62
     0
340
60
144
0.18
309
CONTENTFORMAT_END
171
     0
 94
        0
309
TABLEFORMAT_END
  1
CELLSTYLE_BEGIN
 90
        3
 91
        2
300
_DATA
309
CELLSTYLE_END
  0
XRECORD
  5
6E3
102
{ACAD_REACTORS
330
6B7
102
}
330
6B7
100
AcDbXrecord
280
     1
102
ACAD_ROUNDTRIP_PRE2007_TABLESTYLE
 90
      512
 91
        0
  1

 92
      512
 93
        0
  2

 94
      512
 95
        0
  3

  0
XRECORD
  5
6C8
102
{ACAD_REACTORS
330
6C7
102
}
330
6C7
100
AcDbXrecord
280
     1
102
RTVSPropertyOp0
 70
     1
102
RTVSPropertyOp1
 70
     1
102
RTVSPropertyOp2
 70
     1
102
RTVSPropertyOp3
 70
     1
102
RTVSPropertyOp4
 70
     1
102
RTVSPropertyOp5
 70
     1
102
RTVSPropertyOp6
 70
     1
102
RTVSPropertyOp7
 70
     1
102
RTVSPropertyOp8
 70
     1
102
RTVSPropertyOp9
 70
     1
102
RTVSPropertyOp10
 70
     1
102
RTVSPropertyOp11
 70
     1
102
RTVSPropertyOp12
 70
     1
102
RTVSPropertyOp13
 70
     1
102
RTVSPropertyOp14
 70
     1
102
RTVSPropertyOp15
 70
     1
102
RTVSPropertyOp16
 70
     1
102
RTVSPropertyOp17
 70
     1
102
RTVSPropertyOp18
 70
     1
102
RTVSPropertyOp19
 70
     1
102
RTVSPropertyOp20
 70
     1
102
RTVSPropertyOp21
 70
     1
102
RTVSPropertyOp22
 70
     1
102
RTVSPropertyOp23
 70
     1
102
RTVSPropertyOp24
 70
     1
102
RTVSPropertyOp25
 70
     1
102
RTVSPropertyOp26
 70
     1
102
RTVSPropertyOp27
 70
     1
  0
XRECORD
  5
6CC
102
{ACAD_REACTORS
330
6CB
102
}
330
6CB
100
AcDbXrecord
280
     1
102
RTVSPropertyOp0
 70
     1
102
RTVSPropertyOp1
 70
     1
102
RTVSPropertyOp2
 70
     1
102
RTVSPropertyOp3
 70
     1
102
RTVSPropertyOp4
 70
     1
102
RTVSPropertyOp5
 70
     1
102
RTVSPropertyOp6
 70
     1
102
RTVSPropertyOp7
 70
     1
102
RTVSPropertyOp8
 70
     1
102
RTVSPropertyOp9
 70
     1
102
RTVSPropertyOp10
 70
     1
102
RTVSPropertyOp11
 70
     1
102
RTVSPropertyOp12
 70
     1
102
RTVSPropertyOp13
 70
     1
102
RTVSPropertyOp14
 70
     1
102
RTVSPropertyOp15
 70
     1
102
RTVSPropertyOp16
 70
     1
102
RTVSPropertyOp17
 70
     1
102
RTVSPropertyOp18
 70
     1
102
RTVSPropertyOp19
 70
     1
102
RTVSPropertyOp20
 70
     1
102
RTVSPropertyOp21
 70
     1
102
RTVSPropertyOp22
 70
     1
102
RTVSPropertyOp23
 70
     1
102
RTVSPropertyOp24
 70
     1
102
RTVSPropertyOp25
 70
     1
102
RTVSPropertyOp26
 70
     1
102
RTVSPropertyOp27
 70
     1
  0
XRECORD
  5
6CA
102
{ACAD_REACTORS
330
6C9
102
}
330
6C9
100
AcDbXrecord
280
     1
102
RTVSPropertyOp0
 70
     1
102
RTVSPropertyOp1
 70
     1
102
RTVSPropertyOp2
 70
     1
102
RTVSPropertyOp3
 70
     1
102
RTVSPropertyOp4
 70
     1
102
RTVSPropertyOp5
 70
     1
102
RTVSPropertyOp6
 70
     1
102
RTVSPropertyOp7
 70
     1
102
RTVSPropertyOp8
 70
     1
102
RTVSPropertyOp9
 70
     1
102
RTVSPropertyOp10
 70
     1
102
RTVSPropertyOp11
 70
     1
102
RTVSPropertyOp12
 70
     1
102
RTVSPropertyOp13
 70
     1
102
RTVSPropertyOp14
 70
     1
102
RTVSPropertyOp15
 70
     1
102
RTVSPropertyOp16
 70
     1
102
RTVSPropertyOp17
 70
     1
102
RTVSPropertyOp18
 70
     1
102
RTVSPropertyOp19
 70
     1
102
RTVSPropertyOp20
 70
     1
102
RTVSPropertyOp21
 70
     1
102
RTVSPropertyOp22
 70
     1
102
RTVSPropertyOp23
 70
     1
102
RTVSPropertyOp24
 70
     1
102
RTVSPropertyOp25
 70
     1
102
RTVSPropertyOp26
 70
     1
102
RTVSPropertyOp27
 70
     1
  0
XRECORD
  5
6C6
102
{ACAD_REACTORS
330
6C5
102
}
330
6C5
100
AcDbXrecord
280
     1
102
RTVSPropertyOp0
 70
     1
102
RTVSPropertyOp1
 70
     1
102
RTVSPropertyOp2
 70
     1
102
RTVSPropertyOp3
 70
     1
102
RTVSPropertyOp4
 70
     1
102
RTVSPropertyOp5
 70
     1
102
RTVSPropertyOp6
 70
     1
102
RTVSPropertyOp7
 70
     1
102
RTVSPropertyOp8
 70
     1
102
RTVSPropertyOp9
 70
     1
102
RTVSPropertyOp10
 70
     1
102
RTVSPropertyOp11
 70
     1
102
RTVSPropertyOp12
 70
     1
102
RTVSPropertyOp13
 70
     1
102
RTVSPropertyOp14
 70
     1
102
RTVSPropertyOp15
 70
     1
102
RTVSPropertyOp16
 70
     1
102
RTVSPropertyOp17
 70
     1
102
RTVSPropertyOp18
 70
     1
102
RTVSPropertyOp19
 70
     1
102
RTVSPropertyOp20
 70
     1
102
RTVSPropertyOp21
 70
     1
102
RTVSPropertyOp22
 70
     1
102
RTVSPropertyOp23
 70
     1
102
RTVSPropertyOp24
 70
     1
102
RTVSPropertyOp25
 70
     1
102
RTVSPropertyOp26
 70
     1
102
RTVSPropertyOp27
 70
     1
  0
XRECORD
  5
6D4
102
{ACAD_REACTORS
330
6D3
102
}
330
6D3
100
AcDbXrecord
280
     1
102
RTVSPropertyOp0
 70
     1
102
RTVSPropertyOp1
 70
     1
102
RTVSPropertyOp2
 70
     1
102
RTVSPropertyOp3
 70
     1
102
RTVSPropertyOp4
 70
     1
102
RTVSPropertyOp5
 70
     1
102
RTVSPropertyOp6
 70
     1
102
RTVSPropertyOp7
 70
     1
102
RTVSPropertyOp8
 70
     1
102
RTVSPropertyOp9
 70
     1
102
RTVSPropertyOp10
 70
     1
102
RTVSPropertyOp11
 70
     1
102
RTVSPropertyOp12
 70
     1
102
RTVSPropertyOp13
 70
     1
102
RTVSPropertyOp14
 70
     1
102
RTVSPropertyOp15
 70
     1
102
RTVSPropertyOp16
 70
     1
102
RTVSPropertyOp17
 70
     1
102
RTVSPropertyOp18
 70
     1
102
RTVSPropertyOp19
 70
     1
102
RTVSPropertyOp20
 70
     1
102
RTVSPropertyOp21
 70
     1
102
RTVSPropertyOp22
 70
     1
102
RTVSPropertyOp23
 70
     1
102
RTVSPropertyOp24
 70
     1
102
RTVSPropertyOp25
 70
     1
102
RTVSPropertyOp26
 70
     1
102
RTVSPropertyOp27
 70
     1
  0
XRECORD
  5
6DC
102
{ACAD_REACTORS
330
6DB
102
}
330
6DB
100
AcDbXrecord
280
     1
102
RTVSPropertyOp0
 70
     1
102
RTVSPropertyOp1
 70
     1
102
RTVSPropertyOp2
 70
     1
102
RTVSPropertyOp3
 70
     1
102
RTVSPropertyOp4
 70
     1
102
RTVSPropertyOp5
 70
     1
102
RTVSPropertyOp6
 70
     1
102
RTVSPropertyOp7
 70
     1
102
RTVSPropertyOp8
 70
     1
102
RTVSPropertyOp9
 70
     1
102
RTVSPropertyOp10
 70
     1
102
RTVSPropertyOp11
 70
     1
102
RTVSPropertyOp12
 70
     1
102
RTVSPropertyOp13
 70
     1
102
RTVSPropertyOp14
 70
     1
102
RTVSPropertyOp15
 70
     1
102
RTVSPropertyOp16
 70
     1
102
RTVSPropertyOp17
 70
     1
102
RTVSPropertyOp18
 70
     1
102
RTVSPropertyOp19
 70
     1
102
RTVSPropertyOp20
 70
     1
102
RTVSPropertyOp21
 70
     1
102
RTVSPropertyOp22
 70
     1
102
RTVSPropertyOp23
 70
     1
102
RTVSPropertyOp24
 70
     1
102
RTVSPropertyOp25
 70
     1
102
RTVSPropertyOp26
 70
     1
102
RTVSPropertyOp27
 70
     1
  0
XRECORD
  5
6CE
102
{ACAD_REACTORS
330
6CD
102
}
330
6CD
100
AcDbXrecord
280
     1
102
RTVSPropertyOp0
 70
     1
102
RTVSPropertyOp1
 70
     1
102
RTVSPropertyOp2
 70
     1
102
RTVSPropertyOp3
 70
     1
102
RTVSPropertyOp4
 70
     1
102
RTVSPropertyOp5
 70
     1
102
RTVSPropertyOp6
 70
     1
102
RTVSPropertyOp7
 70
     1
102
RTVSPropertyOp8
 70
     1
102
RTVSPropertyOp9
 70
     1
102
RTVSPropertyOp10
 70
     1
102
RTVSPropertyOp11
 70
     1
102
RTVSPropertyOp12
 70
     1
102
RTVSPropertyOp13
 70
     1
102
RTVSPropertyOp14
 70
     1
102
RTVSPropertyOp15
 70
     1
102
RTVSPropertyOp16
 70
     1
102
RTVSPropertyOp17
 70
     1
102
RTVSPropertyOp18
 70
     1
102
RTVSPropertyOp19
 70
     1
102
RTVSPropertyOp20
 70
     1
102
RTVSPropertyOp21
 70
     1
102
RTVSPropertyOp22
 70
     1
102
RTVSPropertyOp23
 70
     1
102
RTVSPropertyOp24
 70
     1
102
RTVSPropertyOp25
 70
     1
102
RTVSPropertyOp26
 70
     1
102
RTVSPropertyOp27
 70
     1
  0
XRECORD
  5
6D2
102
{ACAD_REACTORS
330
6D1
102
}
330
6D1
100
AcDbXrecord
280
     1
102
RTVSPropertyOp0
 70
     1
102
RTVSPropertyOp1
 70
     1
102
RTVSPropertyOp2
 70
     1
102
RTVSPropertyOp3
 70
     1
102
RTVSPropertyOp4
 70
     1
102
RTVSPropertyOp5
 70
     1
102
RTVSPropertyOp6
 70
     1
102
RTVSPropertyOp7
 70
     1
102
RTVSPropertyOp8
 70
     1
102
RTVSPropertyOp9
 70
     1
102
RTVSPropertyOp10
 70
     1
102
RTVSPropertyOp11
 70
     1
102
RTVSPropertyOp12
 70
     1
102
RTVSPropertyOp13
 70
     1
102
RTVSPropertyOp14
 70
     1
102
RTVSPropertyOp15
 70
     1
102
RTVSPropertyOp16
 70
     1
102
RTVSPropertyOp17
 70
     1
102
RTVSPropertyOp18
 70
     1
102
RTVSPropertyOp19
 70
     1
102
RTVSPropertyOp20
 70
     1
102
RTVSPropertyOp21
 70
     1
102
RTVSPropertyOp22
 70
     1
102
RTVSPropertyOp23
 70
     1
102
RTVSPropertyOp24
 70
     1
102
RTVSPropertyOp25
 70
     1
102
RTVSPropertyOp26
 70
     1
102
RTVSPropertyOp27
 70
     1
  0
XRECORD
  5
6E2
102
{ACAD_REACTORS
330
6E1
102
}
330
6E1
100
AcDbXrecord
280
     1
102
RTVSPropertyOp0
 70
     0
102
RTVSPropertyOp1
 70
     0
102
RTVSPropertyOp2
 70
     0
102
RTVSPropertyOp3
 70
     0
102
RTVSPropertyOp4
 70
     0
102
RTVSPropertyOp5
 70
     0
102
RTVSPropertyOp6
 70
     0
102
RTVSPropertyOp7
 70
     0
102
RTVSPropertyOp8
 70
     0
102
RTVSPropertyOp9
 70
     0
102
RTVSPropertyOp10
 70
     0
102
RTVSPropertyOp11
 70
     0
102
RTVSPropertyOp12
 70
     0
102
RTVSPropertyOp13
 70
     0
102
RTVSPropertyOp14
 70
     2
102
RTVSPropertyOp15
 70
     0
102
RTVSPropertyOp16
 70
     0
102
RTVSPropertyOp17
 70
     0
102
RTVSPropertyOp18
 70
     0
102
RTVSPropertyOp19
 70
     0
102
RTVSPropertyOp20
 70
     0
102
RTVSPropertyOp21
 70
     0
102
RTVSPropertyOp22
 70
     0
102
RTVSPropertyOp23
 70
     0
102
RTVSPropertyOp24
 70
     0
102
RTVSPropertyOp25
 70
     0
102
RTVSPropertyOp26
 70
     0
102
RTVSPropertyOp27
 70
     0
  0
XRECORD
  5
6DA
102
{ACAD_REACTORS
330
6D9
102
}
330
6D9
100
AcDbXrecord
280
     1
102
RTVSPropertyOp0
 70
     1
102
RTVSPropertyOp1
 70
     1
102
RTVSPropertyOp2
 70
     1
102
RTVSPropertyOp3
 70
     1
102
RTVSPropertyOp4
 70
     1
102
RTVSPropertyOp5
 70
     1
102
RTVSPropertyOp6
 70
     1
102
RTVSPropertyOp7
 70
     1
102
RTVSPropertyOp8
 70
     1
102
RTVSPropertyOp9
 70
     1
102
RTVSPropertyOp10
 70
     1
102
RTVSPropertyOp11
 70
     1
102
RTVSPropertyOp12
 70
     1
102
RTVSPropertyOp13
 70
     1
102
RTVSPropertyOp14
 70
     1
102
RTVSPropertyOp15
 70
     1
102
RTVSPropertyOp16
 70
     1
102
RTVSPropertyOp17
 70
     1
102
RTVSPropertyOp18
 70
     1
102
RTVSPropertyOp19
 70
     1
102
RTVSPropertyOp20
 70
     1
102
RTVSPropertyOp21
 70
     1
102
RTVSPropertyOp22
 70
     1
102
RTVSPropertyOp23
 70
     1
102
RTVSPropertyOp24
 70
     1
102
RTVSPropertyOp25
 70
     1
102
RTVSPropertyOp26
 70
     1
102
RTVSPropertyOp27
 70
     1
  0
XRECORD
  5
6BE
102
{ACAD_REACTORS
330
6BD
102
}
330
6BD
100
AcDbXrecord
280
     1
102
RTVSPropertyOp0
 70
     1
102
RTVSPropertyOp1
 70
     1
102
RTVSPropertyOp2
 70
     1
102
RTVSPropertyOp3
 70
     1
102
RTVSPropertyOp4
 70
     1
102
RTVSPropertyOp5
 70
     1
102
RTVSPropertyOp6
 70
     1
102
RTVSPropertyOp7
 70
     1
102
RTVSPropertyOp8
 70
     1
102
RTVSPropertyOp9
 70
     1
102
RTVSPropertyOp10
 70
     1
102
RTVSPropertyOp11
 70
     1
102
RTVSPropertyOp12
 70
     1
102
RTVSPropertyOp13
 70
     1
102
RTVSPropertyOp14
 70
     1
102
RTVSPropertyOp15
 70
     1
102
RTVSPropertyOp16
 70
     1
102
RTVSPropertyOp17
 70
     1
102
RTVSPropertyOp18
 70
     1
102
RTVSPropertyOp19
 70
     1
102
RTVSPropertyOp20
 70
     1
102
RTVSPropertyOp21
 70
     1
102
RTVSPropertyOp22
 70
     1
102
RTVSPropertyOp23
 70
     1
102
RTVSPropertyOp24
 70
     1
102
RTVSPropertyOp25
 70
     1
102
RTVSPropertyOp26
 70
     1
102
RTVSPropertyOp27
 70
     1
  0
XRECORD
  5
6C0
102
{ACAD_REACTORS
330
6BF
102
}
330
6BF
100
AcDbXrecord
280
     1
102
RTVSPropertyOp0
 70
     1
102
RTVSPropertyOp1
 70
     1
102
RTVSPropertyOp2
 70
     1
102
RTVSPropertyOp3
 70
     1
102
RTVSPropertyOp4
 70
     1
102
RTVSPropertyOp5
 70
     1
102
RTVSPropertyOp6
 70
     1
102
RTVSPropertyOp7
 70
     1
102
RTVSPropertyOp8
 70
     1
102
RTVSPropertyOp9
 70
     1
102
RTVSPropertyOp10
 70
     1
102
RTVSPropertyOp11
 70
     1
102
RTVSPropertyOp12
 70
     1
102
RTVSPropertyOp13
 70
     1
102
RTVSPropertyOp14
 70
     1
102
RTVSPropertyOp15
 70
     1
102
RTVSPropertyOp16
 70
     1
102
RTVSPropertyOp17
 70
     1
102
RTVSPropertyOp18
 70
     1
102
RTVSPropertyOp19
 70
     1
102
RTVSPropertyOp20
 70
     1
102
RTVSPropertyOp21
 70
     1
102
RTVSPropertyOp22
 70
     1
102
RTVSPropertyOp23
 70
     1
102
RTVSPropertyOp24
 70
     1
102
RTVSPropertyOp25
 70
     1
102
RTVSPropertyOp26
 70
     1
102
RTVSPropertyOp27
 70
     1
  0
XRECORD
  5
6C2
102
{ACAD_REACTORS
330
6C1
102
}
330
6C1
100
AcDbXrecord
280
     1
102
RTVSPropertyOp0
 70
     1
102
RTVSPropertyOp1
 70
     1
102
RTVSPropertyOp2
 70
     1
102
RTVSPropertyOp3
 70
     1
102
RTVSPropertyOp4
 70
     1
102
RTVSPropertyOp5
 70
     1
102
RTVSPropertyOp6
 70
     1
102
RTVSPropertyOp7
 70
     1
102
RTVSPropertyOp8
 70
     1
102
RTVSPropertyOp9
 70
     1
102
RTVSPropertyOp10
 70
     1
102
RTVSPropertyOp11
 70
     1
102
RTVSPropertyOp12
 70
     1
102
RTVSPropertyOp13
 70
     1
102
RTVSPropertyOp14
 70
     1
102
RTVSPropertyOp15
 70
     1
102
RTVSPropertyOp16
 70
     1
102
RTVSPropertyOp17
 70
     1
102
RTVSPropertyOp18
 70
     1
102
RTVSPropertyOp19
 70
     1
102
RTVSPropertyOp20
 70
     1
102
RTVSPropertyOp21
 70
     1
102
RTVSPropertyOp22
 70
     1
102
RTVSPropertyOp23
 70
     1
102
RTVSPropertyOp24
 70
     1
102
RTVSPropertyOp25
 70
     1
102
RTVSPropertyOp26
 70
     1
102
RTVSPropertyOp27
 70
     1
  0
XRECORD
  5
6C4
102
{ACAD_REACTORS
330
6C3
102
}
330
6C3
100
AcDbXrecord
280
     1
102
RTVSPropertyOp0
 70
     1
102
RTVSPropertyOp1
 70
     1
102
RTVSPropertyOp2
 70
     1
102
RTVSPropertyOp3
 70
     1
102
RTVSPropertyOp4
 70
     1
102
RTVSPropertyOp5
 70
     1
102
RTVSPropertyOp6
 70
     1
102
RTVSPropertyOp7
 70
     1
102
RTVSPropertyOp8
 70
     1
102
RTVSPropertyOp9
 70
     1
102
RTVSPropertyOp10
 70
     1
102
RTVSPropertyOp11
 70
     1
102
RTVSPropertyOp12
 70
     1
102
RTVSPropertyOp13
 70
     1
102
RTVSPropertyOp14
 70
     1
102
RTVSPropertyOp15
 70
     1
102
RTVSPropertyOp16
 70
     1
102
RTVSPropertyOp17
 70
     1
102
RTVSPropertyOp18
 70
     1
102
RTVSPropertyOp19
 70
     1
102
RTVSPropertyOp20
 70
     1
102
RTVSPropertyOp21
 70
     1
102
RTVSPropertyOp22
 70
     1
102
RTVSPropertyOp23
 70
     1
102
RTVSPropertyOp24
 70
     1
102
RTVSPropertyOp25
 70
     1
102
RTVSPropertyOp26
 70
     1
102
RTVSPropertyOp27
 70
     1
  0
XRECORD
  5
6DE
102
{ACAD_REACTORS
330
6DD
102
}
330
6DD
100
AcDbXrecord
280
     1
102
RTVSPropertyOp0
 70
     0
102
RTVSPropertyOp1
 70
     0
102
RTVSPropertyOp2
 70
     0
102
RTVSPropertyOp3
 70
     0
102
RTVSPropertyOp4
 70
     0
102
RTVSPropertyOp5
 70
     0
102
RTVSPropertyOp6
 70
     0
102
RTVSPropertyOp7
 70
     0
102
RTVSPropertyOp8
 70
     0
102
RTVSPropertyOp9
 70
     0
102
RTVSPropertyOp10
 70
     0
102
RTVSPropertyOp11
 70
     0
102
RTVSPropertyOp12
 70
     0
102
RTVSPropertyOp13
 70
     0
102
RTVSPropertyOp14
 70
     2
102
RTVSPropertyOp15
 70
     0
102
RTVSPropertyOp16
 70
     0
102
RTVSPropertyOp17
 70
     0
102
RTVSPropertyOp18
 70
     0
102
RTVSPropertyOp19
 70
     0
102
RTVSPropertyOp20
 70
     0
102
RTVSPropertyOp21
 70
     0
102
RTVSPropertyOp22
 70
     0
102
RTVSPropertyOp23
 70
     0
102
RTVSPropertyOp24
 70
     0
102
RTVSPropertyOp25
 70
     0
102
RTVSPropertyOp26
 70
     0
102
RTVSPropertyOp27
 70
     0
  0
XRECORD
  5
6D8
102
{ACAD_REACTORS
330
6D7
102
}
330
6D7
100
AcDbXrecord
280
     1
102
RTVSPropertyOp0
 70
     1
102
RTVSPropertyOp1
 70
     1
102
RTVSPropertyOp2
 70
     1
102
RTVSPropertyOp3
 70
     1
102
RTVSPropertyOp4
 70
     1
102
RTVSPropertyOp5
 70
     1
102
RTVSPropertyOp6
 70
     1
102
RTVSPropertyOp7
 70
     1
102
RTVSPropertyOp8
 70
     1
102
RTVSPropertyOp9
 70
     1
102
RTVSPropertyOp10
 70
     1
102
RTVSPropertyOp11
 70
     1
102
RTVSPropertyOp12
 70
     1
102
RTVSPropertyOp13
 70
     1
102
RTVSPropertyOp14
 70
     1
102
RTVSPropertyOp15
 70
     1
102
RTVSPropertyOp16
 70
     1
102
RTVSPropertyOp17
 70
     1
102
RTVSPropertyOp18
 70
     1
102
RTVSPropertyOp19
 70
     1
102
RTVSPropertyOp20
 70
     1
102
RTVSPropertyOp21
 70
     1
102
RTVSPropertyOp22
 70
     1
102
RTVSPropertyOp23
 70
     1
102
RTVSPropertyOp24
 70
     1
102
RTVSPropertyOp25
 70
     1
102
RTVSPropertyOp26
 70
     1
102
RTVSPropertyOp27
 70
     1
  0
XRECORD
  5
6E0
102
{ACAD_REACTORS
330
6DF
102
}
330
6DF
100
AcDbXrecord
280
     1
102
RTVSPropertyOp0
 70
     0
102
RTVSPropertyOp1
 70
     0
102
RTVSPropertyOp2
 70
     0
102
RTVSPropertyOp3
 70
     0
102
RTVSPropertyOp4
 70
     0
102
RTVSPropertyOp5
 70
     0
102
RTVSPropertyOp6
 70
     0
102
RTVSPropertyOp7
 70
     0
102
RTVSPropertyOp8
 70
     0
102
RTVSPropertyOp9
 70
     0
102
RTVSPropertyOp10
 70
     0
102
RTVSPropertyOp11
 70
     0
102
RTVSPropertyOp12
 70
     0
102
RTVSPropertyOp13
 70
     0
102
RTVSPropertyOp14
 70
     2
102
RTVSPropertyOp15
 70
     0
102
RTVSPropertyOp16
 70
     0
102
RTVSPropertyOp17
 70
     0
102
RTVSPropertyOp18
 70
     0
102
RTVSPropertyOp19
 70
     0
102
RTVSPropertyOp20
 70
     0
102
RTVSPropertyOp21
 70
     0
102
RTVSPropertyOp22
 70
     0
102
RTVSPropertyOp23
 70
     0
102
RTVSPropertyOp24
 70
     0
102
RTVSPropertyOp25
 70
     0
102
RTVSPropertyOp26
 70
     0
102
RTVSPropertyOp27
 70
     0
  0
XRECORD
  5
6D0
102
{ACAD_REACTORS
330
6CF
102
}
330
6CF
100
AcDbXrecord
280
     1
102
RTVSPropertyOp0
 70
     1
102
RTVSPropertyOp1
 70
     1
102
RTVSPropertyOp2
 70
     1
102
RTVSPropertyOp3
 70
     1
102
RTVSPropertyOp4
 70
     1
102
RTVSPropertyOp5
 70
     1
102
RTVSPropertyOp6
 70
     1
102
RTVSPropertyOp7
 70
     1
102
RTVSPropertyOp8
 70
     1
102
RTVSPropertyOp9
 70
     1
102
RTVSPropertyOp10
 70
     1
102
RTVSPropertyOp11
 70
     1
102
RTVSPropertyOp12
 70
     1
102
RTVSPropertyOp13
 70
     1
102
RTVSPropertyOp14
 70
     1
102
RTVSPropertyOp15
 70
     1
102
RTVSPropertyOp16
 70
     1
102
RTVSPropertyOp17
 70
     1
102
RTVSPropertyOp18
 70
     1
102
RTVSPropertyOp19
 70
     1
102
RTVSPropertyOp20
 70
     1
102
RTVSPropertyOp21
 70
     1
102
RTVSPropertyOp22
 70
     1
102
RTVSPropertyOp23
 70
     1
102
RTVSPropertyOp24
 70
     1
102
RTVSPropertyOp25
 70
     1
102
RTVSPropertyOp26
 70
     1
102
RTVSPropertyOp27
 70
     1
  0
XRECORD
  5
6D6
102
{ACAD_REACTORS
330
6D5
102
}
330
6D5
100
AcDbXrecord
280
     1
102
RTVSPropertyOp0
 70
     1
102
RTVSPropertyOp1
 70
     1
102
RTVSPropertyOp2
 70
     1
102
RTVSPropertyOp3
 70
     1
102
RTVSPropertyOp4
 70
     1
102
RTVSPropertyOp5
 70
     1
102
RTVSPropertyOp6
 70
     1
102
RTVSPropertyOp7
 70
     1
102
RTVSPropertyOp8
 70
     1
102
RTVSPropertyOp9
 70
     1
102
RTVSPropertyOp10
 70
     1
102
RTVSPropertyOp11
 70
     1
102
RTVSPropertyOp12
 70
     1
102
RTVSPropertyOp13
 70
     1
102
RTVSPropertyOp14
 70
     1
102
RTVSPropertyOp15
 70
     1
102
RTVSPropertyOp16
 70
     1
102
RTVSPropertyOp17
 70
     1
102
RTVSPropertyOp18
 70
     1
102
RTVSPropertyOp19
 70
     1
102
RTVSPropertyOp20
 70
     1
102
RTVSPropertyOp21
 70
     1
102
RTVSPropertyOp22
 70
     1
102
RTVSPropertyOp23
 70
     1
102
RTVSPropertyOp24
 70
     1
102
RTVSPropertyOp25
 70
     1
102
RTVSPropertyOp26
 70
     1
102
RTVSPropertyOp27
 70
     1
  0
ENDSEC
  0
EOF
